  0
SECTION
  2
HEADER
  9
$ACADVER
  1
AC1014
  9
$ACADMAINTVER
 70
     9
  9
$DWGCODEPAGE
  3
ANSI_1252
  9
$INSBASE
 10
0.0
 20
0.0
 30
0.0
  9
$EXTMIN
 10
68512.155787
 20
446402.596
 30
3.005
  9
$EXTMAX
 10
69202.367
 20
447166.01
 30
9.583
  9
$LIMMIN
 10
0.0
 20
0.0
  9
$LIMMAX
 10
12.0
 20
9.0
  9
$ORTHOMODE
 70
     0
  9
$REGENMODE
 70
     1
  9
$FILLMODE
 70
     1
  9
$QTEXTMODE
 70
     0
  9
$MIRRTEXT
 70
     1
  9
$DRAGMODE
 70
     2
  9
$LTSCALE
 40
1.0
  9
$OSMODE
 70
    37
  9
$ATTMODE
 70
     1
  9
$TEXTSIZE
 40
0.2
  9
$TRACEWID
 40
0.05
  9
$TEXTSTYLE
  7
STANDARD
  9
$CLAYER
  8
0
  9
$CELTYPE
  6
BYLAYER
  9
$CECOLOR
 62
   256
  9
$CELTSCALE
 40
1.0
  9
$DELOBJ
 70
     1
  9
$DISPSILH
 70
     0
  9
$DIMSCALE
 40
1.0
  9
$DIMASZ
 40
0.18
  9
$DIMEXO
 40
0.0625
  9
$DIMDLI
 40
0.38
  9
$DIMRND
 40
0.0
  9
$DIMDLE
 40
0.0
  9
$DIMEXE
 40
0.18
  9
$DIMTP
 40
0.0
  9
$DIMTM
 40
0.0
  9
$DIMTXT
 40
0.18
  9
$DIMCEN
 40
0.09
  9
$DIMTSZ
 40
0.0
  9
$DIMTOL
 70
     0
  9
$DIMLIM
 70
     0
  9
$DIMTIH
 70
     1
  9
$DIMTOH
 70
     1
  9
$DIMSE1
 70
     0
  9
$DIMSE2
 70
     0
  9
$DIMTAD
 70
     0
  9
$DIMZIN
 70
     0
  9
$DIMBLK
  1

  9
$DIMASO
 70
     1
  9
$DIMSHO
 70
     1
  9
$DIMPOST
  1

  9
$DIMAPOST
  1

  9
$DIMALT
 70
     0
  9
$DIMALTD
 70
     2
  9
$DIMALTF
 40
25.4
  9
$DIMLFAC
 40
1.0
  9
$DIMTOFL
 70
     0
  9
$DIMTVP
 40
0.0
  9
$DIMTIX
 70
     0
  9
$DIMSOXD
 70
     0
  9
$DIMSAH
 70
     0
  9
$DIMBLK1
  1

  9
$DIMBLK2
  1

  9
$DIMSTYLE
  2
STANDARD
  9
$DIMCLRD
 70
     0
  9
$DIMCLRE
 70
     0
  9
$DIMCLRT
 70
     0
  9
$DIMTFAC
 40
1.0
  9
$DIMGAP
 40
0.09
  9
$DIMJUST
 70
     0
  9
$DIMSD1
 70
     0
  9
$DIMSD2
 70
     0
  9
$DIMTOLJ
 70
     1
  9
$DIMTZIN
 70
     0
  9
$DIMALTZ
 70
     0
  9
$DIMALTTZ
 70
     0
  9
$DIMFIT
 70
     3
  9
$DIMUPT
 70
     0
  9
$DIMUNIT
 70
     2
  9
$DIMDEC
 70
     4
  9
$DIMTDEC
 70
     4
  9
$DIMALTU
 70
     2
  9
$DIMALTTD
 70
     2
  9
$DIMTXSTY
  7
STANDARD
  9
$DIMAUNIT
 70
     0
  9
$LUNITS
 70
     2
  9
$LUPREC
 70
     4
  9
$SKETCHINC
 40
0.1
  9
$FILLETRAD
 40
0.5
  9
$AUNITS
 70
     0
  9
$AUPREC
 70
     0
  9
$MENU
  1
.
  9
$ELEVATION
 40
0.0
  9
$PELEVATION
 40
0.0
  9
$THICKNESS
 40
0.0
  9
$LIMCHECK
 70
     0
  9
$CHAMFERA
 40
0.5
  9
$CHAMFERB
 40
0.5
  9
$CHAMFERC
 40
1.0
  9
$CHAMFERD
 40
0.0
  9
$SKPOLY
 70
     0
  9
$TDCREATE
 40
2457359.446458206
  9
$TDUPDATE
 40
2457359.446458391
  9
$TDINDWG
 40
0.0000000116
  9
$TDUSRTIMER
 40
0.0000000116
  9
$USRTIMER
 70
     1
  9
$ANGBASE
 50
0.0
  9
$ANGDIR
 70
     0
  9
$PDMODE
 70
     0
  9
$PDSIZE
 40
0.0
  9
$PLINEWID
 40
0.0
  9
$COORDS
 70
     1
  9
$SPLFRAME
 70
     0
  9
$SPLINETYPE
 70
     6
  9
$SPLINESEGS
 70
     8
  9
$ATTDIA
 70
     0
  9
$ATTREQ
 70
     1
  9
$HANDLING
 70
     1
  9
$HANDSEED
  5
A7
  9
$SURFTAB1
 70
     6
  9
$SURFTAB2
 70
     6
  9
$SURFTYPE
 70
     6
  9
$SURFU
 70
     6
  9
$SURFV
 70
     6
  9
$UCSNAME
  2

  9
$UCSORG
 10
0.0
 20
0.0
 30
0.0
  9
$UCSXDIR
 10
1.0
 20
0.0
 30
0.0
  9
$UCSYDIR
 10
0.0
 20
1.0
 30
0.0
  9
$PUCSNAME
  2

  9
$PUCSORG
 10
0.0
 20
0.0
 30
0.0
  9
$PUCSXDIR
 10
1.0
 20
0.0
 30
0.0
  9
$PUCSYDIR
 10
0.0
 20
1.0
 30
0.0
  9
$USERI1
 70
     0
  9
$USERI2
 70
     0
  9
$USERI3
 70
     0
  9
$USERI4
 70
     0
  9
$USERI5
 70
     0
  9
$USERR1
 40
0.0
  9
$USERR2
 40
0.0
  9
$USERR3
 40
0.0
  9
$USERR4
 40
0.0
  9
$USERR5
 40
0.0
  9
$WORLDVIEW
 70
     1
  9
$SHADEDGE
 70
     3
  9
$SHADEDIF
 70
    70
  9
$TILEMODE
 70
     1
  9
$MAXACTVP
 70
    64
  9
$PINSBASE
 10
0.0
 20
0.0
 30
0.0
  9
$PLIMCHECK
 70
     0
  9
$PEXTMIN
 10
1.000000E+20
 20
1.000000E+20
 30
1.000000E+20
  9
$PEXTMAX
 10
-1.000000E+20
 20
-1.000000E+20
 30
-1.000000E+20
  9
$PLIMMIN
 10
0.0
 20
0.0
  9
$PLIMMAX
 10
12.0
 20
9.0
  9
$UNITMODE
 70
     0
  9
$VISRETAIN
 70
     1
  9
$PLINEGEN
 70
     0
  9
$PSLTSCALE
 70
     1
  9
$TREEDEPTH
 70
  3020
  9
$PICKSTYLE
 70
     1
  9
$CMLSTYLE
  2
STANDARD
  9
$CMLJUST
 70
     0
  9
$CMLSCALE
 40
1.0
  9
$PROXYGRAPHICS
 70
     1
  9
$MEASUREMENT
 70
     0
  0
ENDSEC
  0
SECTION
  2
CLASSES
  0
CLASS
  1
ACDBDICTIONARYWDFLT
  2
AcDbDictionaryWithDefault
  3
ObjectDBX Classes
 90
        0
280
     0
281
     0
  0
CLASS
  1
VISUALSTYLE
  2
AcDbVisualStyle
  3
ObjectDBX Classes
 90
     4095
280
     0
281
     0
  0
CLASS
  1
MATERIAL
  2
AcDbMaterial
  3
ObjectDBX Classes
 90
     1153
280
     0
281
     0
  0
CLASS
  1
DICTIONARYVAR
  2
AcDbDictionaryVar
  3
ObjectDBX Classes
 90
        0
280
     0
281
     0
  0
CLASS
  1
XRECORD
  2
AcDbXrecord
  3
AutoCAD 2000
 90
        0
280
     0
281
     0
  0
CLASS
  1
LWPOLYLINE
  2
AcDbPolyline
  3
AutoCAD 2000
 90
        0
280
     0
281
     1
  0
CLASS
  1
HATCH
  2
AcDbHatch
  3
AutoCAD 2000
 90
        0
280
     0
281
     1
  0
CLASS
  1
ACDBPLACEHOLDER
  2
AcDbPlaceHolder
  3
ObjectDBX Classes
 90
        0
280
     0
281
     0
  0
CLASS
  1
LAYOUT
  2
AcDbLayout
  3
ObjectDBX Classes
 90
        0
280
     0
281
     0
  0
ENDSEC
  0
SECTION
  2
TABLES
  0
TABLE
  2
VPORT
  5
8
330
0
100
AcDbSymbolTable
 70
     1
  0
VPORT
  5
29
330
8
100
AcDbSymbolTableRecord
100
AcDbViewportTableRecord
  2
*ACTIVE
 70
     0
 10
0.0
 20
0.0
 11
1.0
 21
1.0
 12
10.429907
 22
4.5
 13
0.0
 23
0.0
 14
0.5
 24
0.5
 15
0.5
 25
0.5
 16
0.0
 26
0.0
 36
1.0
 17
0.0
 27
0.0
 37
0.0
 40
9.0
 41
1.972973
 42
50.0
 43
0.0
 44
0.0
 50
0.0
 51
0.0
 71
     0
 72
   100
 73
     1
 74
     3
 75
     0
 76
     0
 77
     0
 78
     0
  0
ENDTAB
  0
TABLE
  2
LTYPE
  5
5
330
0
100
AcDbSymbolTable
 70
     1
  0
LTYPE
  5
14
330
5
100
AcDbSymbolTableRecord
100
AcDbLinetypeTableRecord
  2
BYBLOCK
 70
     0
  3

 72
    65
 73
     0
 40
0.0
  0
LTYPE
  5
15
330
5
100
AcDbSymbolTableRecord
100
AcDbLinetypeTableRecord
  2
BYLAYER
 70
     0
  3

 72
    65
 73
     0
 40
0.0
  0
LTYPE
  5
16
330
5
100
AcDbSymbolTableRecord
100
AcDbLinetypeTableRecord
  2
CONTINUOUS
 70
     0
  3
Solid line
 72
    65
 73
     0
 40
0.0
  0
ENDTAB
  0
TABLE
  2
LAYER
  5
2
330
0
100
AcDbSymbolTable
 70
     2
  0
LAYER
  5
10
330
2
100
AcDbSymbolTableRecord
100
AcDbLayerTableRecord
  2
0
 70
     0
 62
     7
  6
CONTINUOUS
  0
LAYER
  5
48
330
2
100
AcDbSymbolTableRecord
100
AcDbLayerTableRecord
  2
PUNTEN
 70
     0
 62
     7
  6
CONTINUOUS
  0
ENDTAB
  0
TABLE
  2
STYLE
  5
3
330
0
100
AcDbSymbolTable
 70
     2
  0
STYLE
  5
11
330
3
100
AcDbSymbolTableRecord
100
AcDbTextStyleTableRecord
  2
STANDARD
 70
     0
 40
0.0
 41
1.0
 50
0.0
 71
     0
 42
0.2
  3
txt
  4

  0
STYLE
  5
40
330
3
100
AcDbSymbolTableRecord
100
AcDbTextStyleTableRecord
  2
STANDAARD
 70
     0
 40
20.0
 41
1.0
 50
0.0
 71
     0
 42
0.2
  3

  4

1001
ACAD
1000
Courier New
1071
        0
  0
ENDTAB
  0
TABLE
  2
VIEW
  5
6
330
0
100
AcDbSymbolTable
 70
     0
  0
ENDTAB
  0
TABLE
  2
UCS
  5
7
330
0
100
AcDbSymbolTable
 70
     0
  0
ENDTAB
  0
TABLE
  2
APPID
  5
9
330
0
100
AcDbSymbolTable
 70
     2
  0
APPID
  5
12
330
9
100
AcDbSymbolTableRecord
100
AcDbRegAppTableRecord
  2
ACAD
 70
     0
  0
APPID
  5
3F
330
9
100
AcDbSymbolTableRecord
100
AcDbRegAppTableRecord
  2
TRIMBLENAME
 70
     0
  0
ENDTAB
  0
TABLE
  2
DIMSTYLE
  5
A
330
0
100
AcDbSymbolTable
 70
     1
  0
DIMSTYLE
105
27
330
A
100
AcDbSymbolTableRecord
100
AcDbDimStyleTableRecord
  2
STANDARD
 70
     0
  3

  4

  5

  6

  7

 40
1.0
 41
0.18
 42
0.0625
 43
0.38
 44
0.18
 45
0.0
 46
0.0
 47
0.0
 48
0.0
140
0.18
141
0.09
142
0.0
143
25.4
144
1.0
145
0.0
146
1.0
147
0.09
 71
     0
 72
     0
 73
     1
 74
     1
 75
     0
 76
     0
 77
     0
 78
     0
170
     0
171
     2
172
     0
173
     0
174
     0
175
     0
176
     0
177
     0
178
     0
270
     2
271
     4
272
     4
273
     2
274
     2
340
11
275
     0
280
     0
281
     0
282
     0
283
     1
284
     0
285
     0
286
     0
287
     3
288
     0
  0
ENDTAB
  0
TABLE
  2
BLOCK_RECORD
  5
1
330
0
100
AcDbSymbolTable
 70
     2
  0
BLOCK_RECORD
  5
1F
330
1
100
AcDbSymbolTableRecord
100
AcDbBlockTableRecord
  2
*MODEL_SPACE
  0
BLOCK_RECORD
  5
1B
330
1
100
AcDbSymbolTableRecord
100
AcDbBlockTableRecord
  2
*PAPER_SPACE
  0
BLOCK_RECORD
  5
41
330
1
100
AcDbSymbolTableRecord
100
AcDbBlockTableRecord
  2
POINT
  0
ENDTAB
  0
ENDSEC
  0
SECTION
  2
BLOCKS
  0
BLOCK
  5
20
330
1F
100
AcDbEntity
  8
0
100
AcDbBlockBegin
  2
*MODEL_SPACE
 70
     0
 10
0.0
 20
0.0
 30
0.0
  3
*MODEL_SPACE
  1

  0
ENDBLK
  5
21
330
1F
100
AcDbEntity
  8
0
100
AcDbBlockEnd
  0
BLOCK
  5
1C
330
1B
100
AcDbEntity
 67
     1
  8
0
100
AcDbBlockBegin
  2
*PAPER_SPACE
 70
     0
 10
0.0
 20
0.0
 30
0.0
  3
*PAPER_SPACE
  1

  0
ENDBLK
  5
1D
330
1B
100
AcDbEntity
 67
     1
  8
0
100
AcDbBlockEnd
  0
BLOCK
  5
7A
330
41
100
AcDbEntity
  8
0
100
AcDbBlockBegin
  2
POINT
 70
     2
 10
0.0
 20
0.0
 30
0.0
  3
POINT
  1

  0
ATTDEF
  5
42
330
41
100
AcDbEntity
  8
0
100
AcDbText
 10
0.0
 20
-2.5
 30
0.0
 40
1.0
  1

 11
0.0
 21
-2.0
 31
0.0
100
AcDbAttributeDefinition
  3

  2
POINT_NUMBER
 70
     0
 74
     2
  0
ATTDEF
  5
43
330
41
100
AcDbEntity
  8
0
100
AcDbText
 10
0.0
 20
-0.5
 30
0.0
 40
1.0
  1

 11
0.0
 21
0.0
 31
0.0
100
AcDbAttributeDefinition
  3

  2
DESCRIPTION
 70
     0
 74
     2
  0
ATTDEF
  5
44
330
41
100
AcDbEntity
  8
0
100
AcDbText
 10
0.0
 20
1.5
 30
0.0
 40
1.0
  1

 11
0.0
 21
2.0
 31
0.0
100
AcDbAttributeDefinition
  3

  2
ELEVATION
 70
     0
 74
     2
  0
LINE
  5
45
330
41
100
AcDbEntity
  8
0
100
AcDbLine
 10
-0.021213
 20
0.021213
 30
0.0
 11
0.021213
 21
-0.021213
 31
0.0
  0
LINE
  5
46
330
41
100
AcDbEntity
  8
0
100
AcDbLine
 10
-0.021213
 20
-0.021213
 30
0.0
 11
0.021213
 21
0.021213
 31
0.0
  0
ENDBLK
  5
7B
330
41
100
AcDbEntity
  8
0
100
AcDbBlockEnd
  0
ENDSEC
  0
SECTION
  2
ENTITIES
  0
INSERT
  5
47
330
1F
100
AcDbEntity
  8
PUNTEN
  6
CONTINUOUS
100
AcDbBlockReference
 66
     1
  2
POINT
 10
68607.987
 20
446588.201
 30
4.07
  0
ATTRIB
  5
49
330
47
100
AcDbEntity
  8
0
100
AcDbText
 10
68607.987
 20
446585.701
 30
4.07
 40
1.0
  1
z3pb
 11
68607.987
 21
446586.201
 31
4.07
100
AcDbAttribute
  2
POINT_NUMBER
 70
     0
 74
     2
  0
ATTRIB
  5
4A
330
47
100
AcDbEntity
  8
0
100
AcDbText
 10
68607.987
 20
446587.701
 30
4.07
 40
1.0
  1
IEPEILBUIS
 11
68607.987
 21
446588.201
 31
4.07
100
AcDbAttribute
  2
DESCRIPTION
 70
     0
 74
     2
  0
ATTRIB
  5
4B
330
47
100
AcDbEntity
  8
0
100
AcDbText
 10
68607.987
 20
446589.701
 30
4.07
 40
1.0
  1
4.07
 11
68607.987
 21
446590.201
 31
4.07
100
AcDbAttribute
  2
ELEVATION
 70
     0
 74
     2
  0
SEQEND
  5
4C
330
47
100
AcDbEntity
  8
PUNTEN
  6
CONTINUOUS
  0
INSERT
  5
4D
330
1F
100
AcDbEntity
  8
PUNTEN
  6
CONTINUOUS
100
AcDbBlockReference
 66
     1
  2
POINT
 10
68555.587
 20
446636.862
 30
3.168
  0
ATTRIB
  5
4E
330
4D
100
AcDbEntity
  8
0
100
AcDbText
 10
68555.587
 20
446634.362
 30
3.168
 40
1.0
  1
z3a-pb
 11
68555.587
 21
446634.862
 31
3.168
100
AcDbAttribute
  2
POINT_NUMBER
 70
     0
 74
     2
  0
ATTRIB
  5
4F
330
4D
100
AcDbEntity
  8
0
100
AcDbText
 10
68555.587
 20
446636.362
 30
3.168
 40
1.0
  1
IEPEILBUIS
 11
68555.587
 21
446636.862
 31
3.168
100
AcDbAttribute
  2
DESCRIPTION
 70
     0
 74
     2
  0
ATTRIB
  5
50
330
4D
100
AcDbEntity
  8
0
100
AcDbText
 10
68555.587
 20
446638.362
 30
3.168
 40
1.0
  1
3.168
 11
68555.587
 21
446638.862
 31
3.168
100
AcDbAttribute
  2
ELEVATION
 70
     0
 74
     2
  0
SEQEND
  5
51
330
4D
100
AcDbEntity
  8
PUNTEN
  6
CONTINUOUS
  0
INSERT
  5
52
330
1F
100
AcDbEntity
  8
PUNTEN
  6
CONTINUOUS
100
AcDbBlockReference
 66
     1
  2
POINT
 10
68512.177
 20
446685.768
 30
9.583
  0
ATTRIB
  5
53
330
52
100
AcDbEntity
  8
0
100
AcDbText
 10
68512.177
 20
446683.268
 30
9.583
 40
1.0
  1
z4-pb
 11
68512.177
 21
446683.768
 31
9.583
100
AcDbAttribute
  2
POINT_NUMBER
 70
     0
 74
     2
  0
ATTRIB
  5
54
330
52
100
AcDbEntity
  8
0
100
AcDbText
 10
68512.177
 20
446685.268
 30
9.583
 40
1.0
  1
IEPEILBUIS
 11
68512.177
 21
446685.768
 31
9.583
100
AcDbAttribute
  2
DESCRIPTION
 70
     0
 74
     2
  0
ATTRIB
  5
55
330
52
100
AcDbEntity
  8
0
100
AcDbText
 10
68512.177
 20
446687.268
 30
9.583
 40
1.0
  1
9.583
 11
68512.177
 21
446687.768
 31
9.583
100
AcDbAttribute
  2
ELEVATION
 70
     0
 74
     2
  0
SEQEND
  5
56
330
52
100
AcDbEntity
  8
PUNTEN
  6
CONTINUOUS
  0
INSERT
  5
57
330
1F
100
AcDbEntity
  8
PUNTEN
  6
CONTINUOUS
100
AcDbBlockReference
 66
     1
  2
POINT
 10
68911.923
 20
447163.477
 30
4.814
  0
ATTRIB
  5
58
330
57
100
AcDbEntity
  8
0
100
AcDbText
 10
68911.923
 20
447160.977
 30
4.814
 40
1.0
  1
n4-pb
 11
68911.923
 21
447161.477
 31
4.814
100
AcDbAttribute
  2
POINT_NUMBER
 70
     0
 74
     2
  0
ATTRIB
  5
59
330
57
100
AcDbEntity
  8
0
100
AcDbText
 10
68911.923
 20
447162.977
 30
4.814
 40
1.0
  1
IEPEILBUIS
 11
68911.923
 21
447163.477
 31
4.814
100
AcDbAttribute
  2
DESCRIPTION
 70
     0
 74
     2
  0
ATTRIB
  5
5A
330
57
100
AcDbEntity
  8
0
100
AcDbText
 10
68911.923
 20
447164.977
 30
4.814
 40
1.0
  1
4.814
 11
68911.923
 21
447165.477
 31
4.814
100
AcDbAttribute
  2
ELEVATION
 70
     0
 74
     2
  0
SEQEND
  5
5B
330
57
100
AcDbEntity
  8
PUNTEN
  6
CONTINUOUS
  0
INSERT
  5
5C
330
1F
100
AcDbEntity
  8
PUNTEN
  6
CONTINUOUS
100
AcDbBlockReference
 66
     1
  2
POINT
 10
68967.362
 20
447120.96
 30
3.005
  0
ATTRIB
  5
5D
330
5C
100
AcDbEntity
  8
0
100
AcDbText
 10
68967.362
 20
447118.46
 30
3.005
 40
1.0
  1
n3a-pb
 11
68967.362
 21
447118.96
 31
3.005
100
AcDbAttribute
  2
POINT_NUMBER
 70
     0
 74
     2
  0
ATTRIB
  5
5E
330
5C
100
AcDbEntity
  8
0
100
AcDbText
 10
68967.362
 20
447120.46
 30
3.005
 40
1.0
  1
IEPEILBUIS
 11
68967.362
 21
447120.96
 31
3.005
100
AcDbAttribute
  2
DESCRIPTION
 70
     0
 74
     2
  0
ATTRIB
  5
5F
330
5C
100
AcDbEntity
  8
0
100
AcDbText
 10
68967.362
 20
447122.46
 30
3.005
 40
1.0
  1
3.005
 11
68967.362
 21
447122.96
 31
3.005
100
AcDbAttribute
  2
ELEVATION
 70
     0
 74
     2
  0
SEQEND
  5
60
330
5C
100
AcDbEntity
  8
PUNTEN
  6
CONTINUOUS
  0
INSERT
  5
61
330
1F
100
AcDbEntity
  8
PUNTEN
  6
CONTINUOUS
100
AcDbBlockReference
 66
     1
  2
POINT
 10
69013.777
 20
447087.99
 30
4.73
  0
ATTRIB
  5
62
330
61
100
AcDbEntity
  8
0
100
AcDbText
 10
69013.777
 20
447085.49
 30
4.73
 40
1.0
  1
n3-pb
 11
69013.777
 21
447085.99
 31
4.73
100
AcDbAttribute
  2
POINT_NUMBER
 70
     0
 74
     2
  0
ATTRIB
  5
63
330
61
100
AcDbEntity
  8
0
100
AcDbText
 10
69013.777
 20
447087.49
 30
4.73
 40
1.0
  1
IEPEILBUIS
 11
69013.777
 21
447087.99
 31
4.73
100
AcDbAttribute
  2
DESCRIPTION
 70
     0
 74
     2
  0
ATTRIB
  5
64
330
61
100
AcDbEntity
  8
0
100
AcDbText
 10
69013.777
 20
447089.49
 30
4.73
 40
1.0
  1
4.73
 11
69013.777
 21
447089.99
 31
4.73
100
AcDbAttribute
  2
ELEVATION
 70
     0
 74
     2
  0
SEQEND
  5
65
330
61
100
AcDbEntity
  8
PUNTEN
  6
CONTINUOUS
  0
INSERT
  5
66
330
1F
100
AcDbEntity
  8
PUNTEN
  6
CONTINUOUS
100
AcDbBlockReference
 66
     1
  2
POINT
 10
69157.281
 20
447002.646
 30
8.069
  0
ATTRIB
  5
67
330
66
100
AcDbEntity
  8
0
100
AcDbText
 10
69157.281
 20
447000.146
 30
8.069
 40
1.0
  1
n2-pb
 11
69157.281
 21
447000.646
 31
8.069
100
AcDbAttribute
  2
POINT_NUMBER
 70
     0
 74
     2
  0
ATTRIB
  5
68
330
66
100
AcDbEntity
  8
0
100
AcDbText
 10
69157.281
 20
447002.146
 30
8.069
 40
1.0
  1
IEPEILBUIS
 11
69157.281
 21
447002.646
 31
8.069
100
AcDbAttribute
  2
DESCRIPTION
 70
     0
 74
     2
  0
ATTRIB
  5
69
330
66
100
AcDbEntity
  8
0
100
AcDbText
 10
69157.281
 20
447004.146
 30
8.069
 40
1.0
  1
8.069
 11
69157.281
 21
447004.646
 31
8.069
100
AcDbAttribute
  2
ELEVATION
 70
     0
 74
     2
  0
SEQEND
  5
6A
330
66
100
AcDbEntity
  8
PUNTEN
  6
CONTINUOUS
  0
INSERT
  5
6B
330
1F
100
AcDbEntity
  8
PUNTEN
  6
CONTINUOUS
100
AcDbBlockReference
 66
     1
  2
POINT
 10
69193.517
 20
446958.716
 30
3.323
  0
ATTRIB
  5
6C
330
6B
100
AcDbEntity
  8
0
100
AcDbText
 10
69193.517
 20
446956.216
 30
3.323
 40
1.0
  1
n1-pb
 11
69193.517
 21
446956.716
 31
3.323
100
AcDbAttribute
  2
POINT_NUMBER
 70
     0
 74
     2
  0
ATTRIB
  5
6D
330
6B
100
AcDbEntity
  8
0
100
AcDbText
 10
69193.517
 20
446958.216
 30
3.323
 40
1.0
  1
IEPEILBUIS
 11
69193.517
 21
446958.716
 31
3.323
100
AcDbAttribute
  2
DESCRIPTION
 70
     0
 74
     2
  0
ATTRIB
  5
6E
330
6B
100
AcDbEntity
  8
0
100
AcDbText
 10
69193.517
 20
446960.216
 30
3.323
 40
1.0
  1
3.323
 11
69193.517
 21
446960.716
 31
3.323
100
AcDbAttribute
  2
ELEVATION
 70
     0
 74
     2
  0
SEQEND
  5
6F
330
6B
100
AcDbEntity
  8
PUNTEN
  6
CONTINUOUS
  0
INSERT
  5
70
330
1F
100
AcDbEntity
  8
PUNTEN
  6
CONTINUOUS
100
AcDbBlockReference
 66
     1
  2
POINT
 10
68871.604
 20
446405.428
 30
5.595
  0
ATTRIB
  5
71
330
70
100
AcDbEntity
  8
0
100
AcDbText
 10
68871.604
 20
446402.928
 30
5.595
 40
1.0
  1
z1-pb
 11
68871.604
 21
446403.428
 31
5.595
100
AcDbAttribute
  2
POINT_NUMBER
 70
     0
 74
     2
  0
ATTRIB
  5
72
330
70
100
AcDbEntity
  8
0
100
AcDbText
 10
68871.604
 20
446404.928
 30
5.595
 40
1.0
  1
IEPEILBUIS
 11
68871.604
 21
446405.428
 31
5.595
100
AcDbAttribute
  2
DESCRIPTION
 70
     0
 74
     2
  0
ATTRIB
  5
73
330
70
100
AcDbEntity
  8
0
100
AcDbText
 10
68871.604
 20
446406.928
 30
5.595
 40
1.0
  1
5.595
 11
68871.604
 21
446407.428
 31
5.595
100
AcDbAttribute
  2
ELEVATION
 70
     0
 74
     2
  0
SEQEND
  5
74
330
70
100
AcDbEntity
  8
PUNTEN
  6
CONTINUOUS
  0
INSERT
  5
75
330
1F
100
AcDbEntity
  8
PUNTEN
  6
CONTINUOUS
100
AcDbBlockReference
 66
     1
  2
POINT
 10
68780.871
 20
446473.4
 30
8.608
  0
ATTRIB
  5
76
330
75
100
AcDbEntity
  8
0
100
AcDbText
 10
68780.871
 20
446470.9
 30
8.608
 40
1.0
  1
z2-pb
 11
68780.871
 21
446471.4
 31
8.608
100
AcDbAttribute
  2
POINT_NUMBER
 70
     0
 74
     2
  0
ATTRIB
  5
77
330
75
100
AcDbEntity
  8
0
100
AcDbText
 10
68780.871
 20
446472.9
 30
8.608
 40
1.0
  1
IEPEILBUIS
 11
68780.871
 21
446473.4
 31
8.608
100
AcDbAttribute
  2
DESCRIPTION
 70
     0
 74
     2
  0
ATTRIB
  5
78
330
75
100
AcDbEntity
  8
0
100
AcDbText
 10
68780.871
 20
446474.9
 30
8.608
 40
1.0
  1
8.608
 11
68780.871
 21
446475.4
 31
8.608
100
AcDbAttribute
  2
ELEVATION
 70
     0
 74
     2
  0
SEQEND
  5
79
330
75
100
AcDbEntity
  8
PUNTEN
  6
CONTINUOUS
  0
ENDSEC
  0
SECTION
  2
OBJECTS
  0
DICTIONARY
  5
C
330
0
100
AcDbDictionary
  3
ACAD_GROUP
350
D
  3
ACAD_LAYOUT
350
1A
  3
ACAD_MATERIAL
350
3B
  3
ACAD_MLEADERSTYLE
350
9E
  3
ACAD_MLINESTYLE
350
17
  3
ACAD_PLOTSETTINGS
350
19
  3
ACAD_VISUALSTYLE
350
2A
  3
ACDBHEADERROUNDTRIPXREC
350
7C
  3
ACDBVARIABLEDICTIONARY
350
9C
  0
DICTIONARY
  5
D
102
{ACAD_REACTORS
330
C
102
}
330
C
100
AcDbDictionary
  0
DICTIONARY
  5
1A
102
{ACAD_REACTORS
330
C
102
}
330
C
100
AcDbDictionary
  0
DICTIONARY
  5
3B
102
{ACAD_REACTORS
330
C
102
}
330
C
100
AcDbDictionary
  3
BYBLOCK
350
3D
  3
BYLAYER
350
3C
  3
GLOBAL
350
3E
  0
DICTIONARY
  5
9E
102
{ACAD_REACTORS
330
C
102
}
330
C
100
AcDbDictionary
  0
DICTIONARY
  5
17
102
{ACAD_REACTORS
330
C
102
}
330
C
100
AcDbDictionary
  3
STANDARD
350
18
  0
DICTIONARY
  5
19
102
{ACAD_REACTORS
330
C
102
}
330
C
100
AcDbDictionary
  0
DICTIONARY
  5
2A
102
{ACAD_REACTORS
330
C
102
}
330
C
100
AcDbDictionary
  3
2DWIREFRAME
350
2F
  3
3D_HIDDEN
350
31
  3
3DWIREFRAME
350
30
  3
BASIC
350
32
  3
BRIGHTEN
350
36
  3
COLORCHANGE
350
3A
  3
CONCEPTUAL
350
34
  3
DIM
350
35
  3
FACEPATTERN
350
39
  3
FLAT
350
2B
  3
FLATWITHEDGES
350
2C
  3
GOURAUD
350
2D
  3
GOURAUDWITHEDGES
350
2E
  3
LINEPATTERN
350
38
  3
REALISTIC
350
33
  3
THICKEN
350
37
  0
DICTIONARY
  5
7C
102
{ACAD_REACTORS
330
C
102
}
330
C
100
AcDbDictionary
  3
CEPSNTYPE
350
85
  3
DIMSTYLEDATA
350
9B
  3
FINGERPRINTGUID
350
86
  3
HYPERLINKBASE
350
7F
  3
INSUNITS
350
84
  3
LAYOUTDICT
350
81
  3
LWETCUNION
350
83
  3
PLOTSETDICT
350
82
  3
PSVPSCALE
350
88
  3
PUCSBASE
350
8B
  3
PUCSORGBACK
350
91
  3
PUCSORGBOTTOM
350
8D
  3
PUCSORGFRONT
350
90
  3
PUCSORGLEFT
350
8E
  3
PUCSORGRIGHT
350
8F
  3
PUCSORGTOP
350
8C
  3
PUCSORTHOREF
350
89
  3
PUCSORTHOVIEW
350
8A
  3
STYLESHEET
350
80
  3
TSTACKALIGN
350
7D
  3
TSTACKSIZE
350
7E
  3
UCSBASE
350
94
  3
UCSORGBACK
350
9A
  3
UCSORGBOTTOM
350
96
  3
UCSORGFRONT
350
99
  3
UCSORGLEFT
350
97
  3
UCSORGRIGHT
350
98
  3
UCSORGTOP
350
95
  3
UCSORTHOREF
350
92
  3
UCSORTHOVIEW
350
93
  3
VERSIONGUID
350
87
  0
DICTIONARY
  5
9C
102
{ACAD_REACTORS
330
C
102
}
330
C
100
AcDbDictionary
  3
DIMASSOC
350
9F
  3
HIDETEXT
350
A0
  0
MATERIAL
  5
3D
102
{ACAD_REACTORS
330
3B
102
}
102
{ACAD_XDICTIONARY
360
A3
102
}
330
3B
100
AcDbMaterial
  1
ByBlock
  0
MATERIAL
  5
3C
102
{ACAD_REACTORS
330
3B
102
}
102
{ACAD_XDICTIONARY
360
A1
102
}
330
3B
100
AcDbMaterial
  1
ByLayer
  0
MATERIAL
  5
3E
102
{ACAD_REACTORS
330
3B
102
}
102
{ACAD_XDICTIONARY
360
A5
102
}
330
3B
100
AcDbMaterial
  1
Global
  0
MLINESTYLE
  5
18
102
{ACAD_REACTORS
330
17
102
}
330
17
100
AcDbMlineStyle
  2
Standard
 70
     0
  3

 62
   256
 51
90.0
 52
90.0
 71
     2
 49
0.5
 62
   256
  6
BYLAYER
 49
-0.5
 62
   256
  6
BYLAYER
  0
ACAD_PROXY_OBJECT
  5
2F
102
{ACAD_REACTORS
330
2A
102
}
330
2A
100
AcDbProxyObject
 90
      499
 91
      501
 93
      436
310
42CC9915DA5C99599C985B595049028333333333333E3BF0000000000000FB0107901411070040501600405405064090741402480A0340
1001
ACAD
1000
AcDbSavedByObjectVersion
1070
     0
  0
ACAD_PROXY_OBJECT
  5
31
102
{ACAD_REACTORS
330
2A
102
}
330
2A
100
AcDbProxyObject
 90
      499
 91
      501
 93
      500
310
424CD108121A5919195B90640502408333333333333E3BF0000000000000FB01079024090700405020000000000001110200405405064090740C02480A0340
1001
ACAD
1000
AcDbSavedByObjectVersion
1070
     0
  0
ACAD_PROXY_OBJECT
  5
30
102
{ACAD_REACTORS
330
2A
102
}
330
2A
100
AcDbProxyObject
 90
      499
 91
      501
 93
      436
310
42CCD915DA5C99599C985B595059028333333333333E3BF0000000000000FB0107901411070040501600405405064090741402480A0340
1001
ACAD
1000
AcDbSavedByObjectVersion
1070
     0
  0
ACAD_PROXY_OBJECT
  5
32
102
{ACAD_REACTORS
330
2A
102
}
330
2A
100
AcDbProxyObject
 90
      499
 91
      501
 93
      388
310
4150985CDA58D07406404333333333333E3BF0000000000000FB0107A41107004050150841D405064090741402480A0350
1001
ACAD
1000
AcDbSavedByObjectVersion
1070
     0
  0
ACAD_PROXY_OBJECT
  5
36
102
{ACAD_REACTORS
330
2A
102
}
330
2A
100
AcDbProxyObject
 90
      499
 91
      501
 93
      428
310
42109C9A59DA1D195B90C409028333333333333E3BF0000000000000FB010790141107004050150841D405064090741402480A029950
1001
ACAD
1000
AcDbSavedByObjectVersion
1070
     0
  0
ACAD_PROXY_OBJECT
  5
3A
102
{ACAD_REACTORS
330
2A
102
}
330
2A
100
AcDbProxyObject
 90
      499
 91
      501
 93
      452
310
42D0DBDB1BDC90DA185B99D95104090240C333333333333E3BF0000000000000FB0108901411070040501508421405064090741402480A0350
1001
ACAD
1000
AcDbSavedByObjectVersion
1070
     0
  0
ACAD_PROXY_OBJECT
  5
34
102
{ACAD_REACTORS
330
2A
102
}
330
2A
100
AcDbProxyObject
 90
      499
 91
      501
 93
      500
310
4290DBDB98D95C1D1D585B10940D028333333333333E3BF0000000000000FB0107902409070040501000000000000111010841D405064090740C02480A0340
1001
ACAD
1000
AcDbSavedByObjectVersion
1070
     0
  0
ACAD_PROXY_OBJECT
  5
35
102
{ACAD_REACTORS
330
2A
102
}
330
2A
100
AcDbProxyObject
 90
      499
 91
      501
 93
      412
310
40D11A5B50B409028333333333333E3BF0000000000000FB010790141107004050150841D405064090741402480A02677FFFFFD0
1001
ACAD
1000
AcDbSavedByObjectVersion
1070
     0
  0
ACAD_PROXY_OBJECT
  5
39
102
{ACAD_REACTORS
330
2A
102
}
330
2A
100
AcDbProxyObject
 90
      499
 91
      501
 93
      444
310
42D19858D95C185D1D195C9B90F409028333333333333E3BF0000000000000FB010790141107004050150841D405064090741402480A0350
1001
ACAD
1000
AcDbSavedByObjectVersion
1070
     0
  0
ACAD_PROXY_OBJECT
  5
2B
102
{ACAD_REACTORS
330
2A
102
}
330
2A
100
AcDbProxyObject
 90
      499
 91
      501
 93
      388
310
41119B185D240901404333333333333E3BF0000000000000F9010740A41107004050150841D405064090741402480A1B50
1001
ACAD
1000
AcDbSavedByObjectVersion
1070
     0
  0
ACAD_PROXY_OBJECT
  5
2C
102
{ACAD_REACTORS
330
2A
102
}
330
2A
100
AcDbProxyObject
 90
      499
 91
      501
 93
      476
310
43519B185D15DA5D1A115919D95CD0140901404333333333333E3BF0000000000000F9010740901411070040501600405405064090741402480A1B50
1001
ACAD
1000
AcDbSavedByObjectVersion
1070
     0
  0
ACAD_PROXY_OBJECT
  5
2D
102
{ACAD_REACTORS
330
2A
102
}
330
2A
100
AcDbProxyObject
 90
      499
 91
      501
 93
      412
310
41D1DBDD5C985D5910240902404333333333333E3BF0000000000000F9010740A411070040501641D405064090741402480A1B50
1001
ACAD
1000
AcDbSavedByObjectVersion
1070
     0
  0
ACAD_PROXY_OBJECT
  5
2E
102
{ACAD_REACTORS
330
2A
102
}
330
2A
100
AcDbProxyObject
 90
      499
 91
      501
 93
      500
310
4411DBDD5C985D5915DA5D1A115919D95CD0340902404333333333333E3BF0000000000000F9010740901411070040501600405405064090741402480A1B50
1001
ACAD
1000
AcDbSavedByObjectVersion
1070
     0
  0
ACAD_PROXY_OBJECT
  5
38
102
{ACAD_REACTORS
330
2A
102
}
330
2A
100
AcDbProxyObject
 90
      499
 91
      501
 93
      444
310
42D31A5B995C185D1D195C9B90E409028333333333333E3BF0000000000000FB010790141107004050750841D405064090741402483A0350
1001
ACAD
1000
AcDbSavedByObjectVersion
1070
     0
  0
ACAD_PROXY_OBJECT
  5
33
102
{ACAD_REACTORS
330
2A
102
}
330
2A
100
AcDbProxyObject
 90
      499
 91
      501
 93
      420
310
425499585B1A5CDD1A58D08409028333333333333E3BF0000000000000FB01079019070040501508421405064090741402480A1B40
1001
ACAD
1000
AcDbSavedByObjectVersion
1070
     0
  0
ACAD_PROXY_OBJECT
  5
37
102
{ACAD_REACTORS
330
2A
102
}
330
2A
100
AcDbProxyObject
 90
      499
 91
      501
 93
      412
310
41D51A1A58DAD95B90D409028333333333333E3BF0000000000000FB010790141107004050150C41D405064090741402480A0350
1001
ACAD
1000
AcDbSavedByObjectVersion
1070
     0
  0
XRECORD
  5
85
102
{ACAD_REACTORS
330
7C
102
}
330
7C
100
AcDbXrecord
 90
        0
  0
XRECORD
  5
9B
102
{ACAD_REACTORS
330
7C
102
}
330
7C
100
AcDbXrecord
1000
DSTYLE
1002
{
1070
   340
340
11
1002
}
  0
XRECORD
  5
86
102
{ACAD_REACTORS
330
7C
102
}
330
7C
100
AcDbXrecord
  1
{495A3071-0296-4928-829E-EB3274610054}
  0
XRECORD
  5
7F
102
{ACAD_REACTORS
330
7C
102
}
330
7C
100
AcDbXrecord
  1

  0
XRECORD
  5
84
102
{ACAD_REACTORS
330
7C
102
}
330
7C
100
AcDbXrecord
 90
        1
  0
XRECORD
  5
81
102
{ACAD_REACTORS
330
7C
102
}
330
7C
100
AcDbXrecord
340
1A
  0
XRECORD
  5
83
102
{ACAD_REACTORS
330
7C
102
}
330
7C
100
AcDbXrecord
 90
    10781
  0
XRECORD
  5
82
102
{ACAD_REACTORS
330
7C
102
}
330
7C
100
AcDbXrecord
340
19
  0
XRECORD
  5
88
102
{ACAD_REACTORS
330
7C
102
}
330
7C
100
AcDbXrecord
 40
0.0
  0
XRECORD
  5
8B
102
{ACAD_REACTORS
330
7C
102
}
330
7C
100
AcDbXrecord
340
0
  0
XRECORD
  5
91
102
{ACAD_REACTORS
330
7C
102
}
330
7C
100
AcDbXrecord
 10
0.0
 20
0.0
 30
0.0
  0
XRECORD
  5
8D
102
{ACAD_REACTORS
330
7C
102
}
330
7C
100
AcDbXrecord
 10
0.0
 20
0.0
 30
0.0
  0
XRECORD
  5
90
102
{ACAD_REACTORS
330
7C
102
}
330
7C
100
AcDbXrecord
 10
0.0
 20
0.0
 30
0.0
  0
XRECORD
  5
8E
102
{ACAD_REACTORS
330
7C
102
}
330
7C
100
AcDbXrecord
 10
0.0
 20
0.0
 30
0.0
  0
XRECORD
  5
8F
102
{ACAD_REACTORS
330
7C
102
}
330
7C
100
AcDbXrecord
 10
0.0
 20
0.0
 30
0.0
  0
XRECORD
  5
8C
102
{ACAD_REACTORS
330
7C
102
}
330
7C
100
AcDbXrecord
 10
0.0
 20
0.0
 30
0.0
  0
XRECORD
  5
89
102
{ACAD_REACTORS
330
7C
102
}
330
7C
100
AcDbXrecord
340
0
  0
XRECORD
  5
8A
102
{ACAD_REACTORS
330
7C
102
}
330
7C
100
AcDbXrecord
 70
     0
  0
XRECORD
  5
80
102
{ACAD_REACTORS
330
7C
102
}
330
7C
100
AcDbXrecord
  1

  0
XRECORD
  5
7D
102
{ACAD_REACTORS
330
7C
102
}
330
7C
100
AcDbXrecord
 90
        1
  0
XRECORD
  5
7E
102
{ACAD_REACTORS
330
7C
102
}
330
7C
100
AcDbXrecord
 90
       70
  0
XRECORD
  5
94
102
{ACAD_REACTORS
330
7C
102
}
330
7C
100
AcDbXrecord
340
0
  0
XRECORD
  5
9A
102
{ACAD_REACTORS
330
7C
102
}
330
7C
100
AcDbXrecord
 10
0.0
 20
0.0
 30
0.0
  0
XRECORD
  5
96
102
{ACAD_REACTORS
330
7C
102
}
330
7C
100
AcDbXrecord
 10
0.0
 20
0.0
 30
0.0
  0
XRECORD
  5
99
102
{ACAD_REACTORS
330
7C
102
}
330
7C
100
AcDbXrecord
 10
0.0
 20
0.0
 30
0.0
  0
XRECORD
  5
97
102
{ACAD_REACTORS
330
7C
102
}
330
7C
100
AcDbXrecord
 10
0.0
 20
0.0
 30
0.0
  0
XRECORD
  5
98
102
{ACAD_REACTORS
330
7C
102
}
330
7C
100
AcDbXrecord
 10
0.0
 20
0.0
 30
0.0
  0
XRECORD
  5
95
102
{ACAD_REACTORS
330
7C
102
}
330
7C
100
AcDbXrecord
 10
0.0
 20
0.0
 30
0.0
  0
XRECORD
  5
92
102
{ACAD_REACTORS
330
7C
102
}
330
7C
100
AcDbXrecord
340
0
  0
XRECORD
  5
93
102
{ACAD_REACTORS
330
7C
102
}
330
7C
100
AcDbXrecord
 70
     0
  0
XRECORD
  5
87
102
{ACAD_REACTORS
330
7C
102
}
330
7C
100
AcDbXrecord
  1
{FAEB1C32-E019-11D5-929B-00C0DF256EC4}
  0
DICTIONARYVAR
  5
9F
102
{ACAD_REACTORS
330
9C
102
}
330
9C
100
DictionaryVariables
280
     0
  1
2
  0
DICTIONARYVAR
  5
A0
102
{ACAD_REACTORS
330
9C
102
}
330
9C
100
DictionaryVariables
280
     0
  1
1
  0
DICTIONARY
  5
A3
330
3D
100
AcDbDictionary
280
     1
  3
ACAD_XREC_ROUNDTRIP
360
A4
  0
DICTIONARY
  5
A1
330
3C
100
AcDbDictionary
280
     1
  3
ACAD_XREC_ROUNDTRIP
360
A2
  0
DICTIONARY
  5
A5
330
3E
100
AcDbDictionary
280
     1
  3
ACAD_XREC_ROUNDTRIP
360
A6
  0
XRECORD
  5
A4
102
{ACAD_REACTORS
330
A3
102
}
330
A3
100
AcDbXrecord
102
MATERIAL
148
0.0
149
0.0
149
0.0
 93
        0
 94
      127
282
     0
 72
     1
 77
     1
171
     1
175
     1
179
     1
273
     0
  0
XRECORD
  5
A2
102
{ACAD_REACTORS
330
A1
102
}
330
A1
100
AcDbXrecord
102
MATERIAL
148
0.0
149
0.0
149
0.0
 93
        0
 94
      127
282
     0
 72
     1
 77
     1
171
     1
175
     1
179
     1
273
     0
  0
XRECORD
  5
A6
102
{ACAD_REACTORS
330
A5
102
}
330
A5
100
AcDbXrecord
102
MATERIAL
148
0.0
149
0.0
149
0.0
 93
        0
 94
      127
282
     0
 72
     1
 77
     1
171
     1
175
     1
179
     1
273
     0
  0
ENDSEC
  0
EOF
