0
SECTION
2
HEADER
9
$EXTMIN
10
48673
20
423411
30
0.0
9
$EXTMAX
10
63210
20
449207
30
0.0
9
$LIMMIN
10
42858.2
20
423411
9
$LIMMAX
10
69024.8
20
449207
0
ENDSEC
0
SECTION
2
TABLES
0
TABLE
2
LTYPE
70
4
0
LTYPE
2
CONTINUOUS
70
64
3
Solid line
72
65
73
0
40
0.0
0
LTYPE
2
DASHED
70
64
3
Dashed line
72
65
73
2
40
0.8
49
0.5
49
-0.3
0
LTYPE
2
DOT
70
64
3
Dotted line
72
65
73
2
40
0.2
49
0.1
49
-0.1
0
LTYPE
2
DASHDOT
70
64
3
Dotted line
72
65
73
4
40
1
49
0.5
49
-0.2
49
0.1
49
-0.2
0
LTYPE
2
SMALLDOT
70
64
3
Small dotted
72
65
73
2
40
0.1
49
0
49
-0.1
0
LTYPE
2
CENTER
70
64
3
Centerline
72
65
73
4
40
1.1
49
0.8
49
-0.1
49
0.1
49
-0.1
0
ENDTAB
0
TABLE
2
LAYER
70
8
0
LAYER
2
LIMIT_LAYER
70
0
62
7
6
CONTINUOUS
0
LAYER
2
RUN_LAYER
70
0
62
1
6
CONTINUOUS
0
LAYER
2
BACKGROUND_LAYER
70
0
62
2
6
CONTINUOUS
0
LAYER
2
PHOTO_LAYER
70
0
62
3
6
CONTINUOUS
0
LAYER
2
PHOTO_TICKS_LAYER
70
0
62
1
6
CONTINUOUS
0
LAYER
2
fr_1
70
0
62
3
6
CONTINUOUS
0
LAYER
2
fr_2
70
0
62
3
6
CONTINUOUS
0
LAYER
2
fr_3
70
0
62
3
6
CONTINUOUS
0
LAYER
2
fr_4
70
0
62
3
6
CONTINUOUS
0
ENDTAB
0
TABLE
2
VIEW
70
0
0
ENDTAB
0
ENDSEC
0
SECTION
2
ENTITIES
0
TEXT
8
RUN_LAYER
62
0
10
48472.88
20
433463.7
30
0
40
499.71
1
1
50
0
0
TEXT
8
RUN_LAYER
62
0
10
48476.35
20
422461.6
30
0
40
499.71
1
1
50
0
0
TEXT
8
RUN_LAYER
62
0
10
52107.02
20
440252.7
30
0
40
499.71
1
2
50
0
0
TEXT
8
RUN_LAYER
62
0
10
52109.21
20
422461.6
30
0
40
499.71
1
2
50
0
0
TEXT
8
RUN_LAYER
62
0
10
55741.04
20
447040.7
30
0
40
499.71
1
3
50
0
0
TEXT
8
RUN_LAYER
62
0
10
55743.19
20
425176.6
30
0
40
499.71
1
3
50
0
0
TEXT
8
RUN_LAYER
62
0
10
59376.05
20
449756.7
30
0
40
499.71
1
4
50
0
0
TEXT
8
RUN_LAYER
62
0
10
59378.18
20
425177.6
30
0
40
499.71
1
4
50
0
0
TEXT
8
RUN_LAYER
62
0
10
63010.12
20
448398.7
30
0
40
499.71
1
5
50
0
0
TEXT
8
RUN_LAYER
62
0
10
63010.12
20
425182.6
30
0
40
499.71
1
5
50
0
0
POLYLINE
8
LIMIT_LAYER
40
0.000001
70
1
41
0.000001
66
1
0
VERTEX
8
LIMIT_LAYER
10
58393
20
427523
30
0
40
1
41
1
0
VERTEX
8
LIMIT_LAYER
10
58273
20
427515
30
0
40
1
41
1
0
VERTEX
8
LIMIT_LAYER
10
58149
20
427506
30
0
40
1
41
1
0
VERTEX
8
LIMIT_LAYER
10
58025
20
427497
30
0
40
1
41
1
0
VERTEX
8
LIMIT_LAYER
10
57901
20
427486
30
0
40
1
41
1
0
VERTEX
8
LIMIT_LAYER
10
57777
20
427475
30
0
40
1
41
1
0
VERTEX
8
LIMIT_LAYER
10
57652
20
427463
30
0
40
1
41
1
0
VERTEX
8
LIMIT_LAYER
10
57528
20
427450
30
0
40
1
41
1
0
VERTEX
8
LIMIT_LAYER
10
57405
20
427437
30
0
40
1
41
1
0
VERTEX
8
LIMIT_LAYER
10
57281
20
427422
30
0
40
1
41
1
0
VERTEX
8
LIMIT_LAYER
10
57157
20
427407
30
0
40
1
41
1
0
VERTEX
8
LIMIT_LAYER
10
57033
20
427391
30
0
40
1
41
1
0
VERTEX
8
LIMIT_LAYER
10
56910
20
427374
30
0
40
1
41
1
0
VERTEX
8
LIMIT_LAYER
10
56787
20
427357
30
0
40
1
41
1
0
VERTEX
8
LIMIT_LAYER
10
56663
20
427338
30
0
40
1
41
1
0
VERTEX
8
LIMIT_LAYER
10
56540
20
427319
30
0
40
1
41
1
0
VERTEX
8
LIMIT_LAYER
10
56417
20
427299
30
0
40
1
41
1
0
VERTEX
8
LIMIT_LAYER
10
56294
20
427279
30
0
40
1
41
1
0
VERTEX
8
LIMIT_LAYER
10
56171
20
427257
30
0
40
1
41
1
0
VERTEX
8
LIMIT_LAYER
10
56049
20
427235
30
0
40
1
41
1
0
VERTEX
8
LIMIT_LAYER
10
55926
20
427212
30
0
40
1
41
1
0
VERTEX
8
LIMIT_LAYER
10
55804
20
427188
30
0
40
1
41
1
0
VERTEX
8
LIMIT_LAYER
10
55682
20
427163
30
0
40
1
41
1
0
VERTEX
8
LIMIT_LAYER
10
55560
20
427138
30
0
40
1
41
1
0
VERTEX
8
LIMIT_LAYER
10
55438
20
427111
30
0
40
1
41
1
0
VERTEX
8
LIMIT_LAYER
10
55316
20
427084
30
0
40
1
41
1
0
VERTEX
8
LIMIT_LAYER
10
55195
20
427057
30
0
40
1
41
1
0
VERTEX
8
LIMIT_LAYER
10
55073
20
427028
30
0
40
1
41
1
0
VERTEX
8
LIMIT_LAYER
10
54952
20
426999
30
0
40
1
41
1
0
VERTEX
8
LIMIT_LAYER
10
54831
20
426969
30
0
40
1
41
1
0
VERTEX
8
LIMIT_LAYER
10
54711
20
426938
30
0
40
1
41
1
0
VERTEX
8
LIMIT_LAYER
10
54590
20
426906
30
0
40
1
41
1
0
VERTEX
8
LIMIT_LAYER
10
54470
20
426874
30
0
40
1
41
1
0
VERTEX
8
LIMIT_LAYER
10
54349
20
426840
30
0
40
1
41
1
0
VERTEX
8
LIMIT_LAYER
10
54230
20
426806
30
0
40
1
41
1
0
VERTEX
8
LIMIT_LAYER
10
54110
20
426772
30
0
40
1
41
1
0
VERTEX
8
LIMIT_LAYER
10
53990
20
426736
30
0
40
1
41
1
0
VERTEX
8
LIMIT_LAYER
10
53871
20
426700
30
0
40
1
41
1
0
VERTEX
8
LIMIT_LAYER
10
53752
20
426663
30
0
40
1
41
1
0
VERTEX
8
LIMIT_LAYER
10
53633
20
426625
30
0
40
1
41
1
0
VERTEX
8
LIMIT_LAYER
10
53515
20
426586
30
0
40
1
41
1
0
VERTEX
8
LIMIT_LAYER
10
53397
20
426547
30
0
40
1
41
1
0
VERTEX
8
LIMIT_LAYER
10
53279
20
426507
30
0
40
1
41
1
0
VERTEX
8
LIMIT_LAYER
10
53161
20
426466
30
0
40
1
41
1
0
VERTEX
8
LIMIT_LAYER
10
53043
20
426424
30
0
40
1
41
1
0
VERTEX
8
LIMIT_LAYER
10
52926
20
426382
30
0
40
1
41
1
0
VERTEX
8
LIMIT_LAYER
10
52809
20
426339
30
0
40
1
41
1
0
VERTEX
8
LIMIT_LAYER
10
52693
20
426295
30
0
40
1
41
1
0
VERTEX
8
LIMIT_LAYER
10
52576
20
426250
30
0
40
1
41
1
0
VERTEX
8
LIMIT_LAYER
10
52460
20
426205
30
0
40
1
41
1
0
VERTEX
8
LIMIT_LAYER
10
52344
20
426159
30
0
40
1
41
1
0
VERTEX
8
LIMIT_LAYER
10
52229
20
426112
30
0
40
1
41
1
0
VERTEX
8
LIMIT_LAYER
10
52114
20
426064
30
0
40
1
41
1
0
VERTEX
8
LIMIT_LAYER
10
51999
20
426016
30
0
40
1
41
1
0
VERTEX
8
LIMIT_LAYER
10
51884
20
425967
30
0
40
1
41
1
0
VERTEX
8
LIMIT_LAYER
10
51770
20
425917
30
0
40
1
41
1
0
VERTEX
8
LIMIT_LAYER
10
51656
20
425867
30
0
40
1
41
1
0
VERTEX
8
LIMIT_LAYER
10
51542
20
425815
30
0
40
1
41
1
0
VERTEX
8
LIMIT_LAYER
10
51429
20
425763
30
0
40
1
41
1
0
VERTEX
8
LIMIT_LAYER
10
51316
20
425711
30
0
40
1
41
1
0
VERTEX
8
LIMIT_LAYER
10
51204
20
425657
30
0
40
1
41
1
0
VERTEX
8
LIMIT_LAYER
10
51091
20
425603
30
0
40
1
41
1
0
VERTEX
8
LIMIT_LAYER
10
50979
20
425548
30
0
40
1
41
1
0
VERTEX
8
LIMIT_LAYER
10
50868
20
425492
30
0
40
1
41
1
0
VERTEX
8
LIMIT_LAYER
10
50757
20
425436
30
0
40
1
41
1
0
VERTEX
8
LIMIT_LAYER
10
50646
20
425379
30
0
40
1
41
1
0
VERTEX
8
LIMIT_LAYER
10
50535
20
425321
30
0
40
1
41
1
0
VERTEX
8
LIMIT_LAYER
10
50425
20
425263
30
0
40
1
41
1
0
VERTEX
8
LIMIT_LAYER
10
50316
20
425204
30
0
40
1
41
1
0
VERTEX
8
LIMIT_LAYER
10
50206
20
425144
30
0
40
1
41
1
0
VERTEX
8
LIMIT_LAYER
10
50097
20
425083
30
0
40
1
41
1
0
VERTEX
8
LIMIT_LAYER
10
49989
20
425022
30
0
40
1
41
1
0
VERTEX
8
LIMIT_LAYER
10
49881
20
424960
30
0
40
1
41
1
0
VERTEX
8
LIMIT_LAYER
10
49773
20
424897
30
0
40
1
41
1
0
VERTEX
8
LIMIT_LAYER
10
49666
20
424834
30
0
40
1
41
1
0
VERTEX
8
LIMIT_LAYER
10
49559
20
424770
30
0
40
1
41
1
0
VERTEX
8
LIMIT_LAYER
10
49452
20
424705
30
0
40
1
41
1
0
VERTEX
8
LIMIT_LAYER
10
49416
20
424683
30
0
40
1
41
1
0
VERTEX
8
LIMIT_LAYER
10
47528
20
425622
30
0
40
1
41
1
0
VERTEX
8
LIMIT_LAYER
10
59178
20
447827
30
0
40
1
41
1
0
VERTEX
8
LIMIT_LAYER
10
63405
20
446050
30
0
40
1
41
1
0
VERTEX
8
LIMIT_LAYER
10
59433
20
437612
30
0
40
1
41
1
0
VERTEX
8
LIMIT_LAYER
10
58393
20
427523
30
0
40
1
41
1
0
SEQEND
0
POLYLINE
8
BACKGROUND_LAYER
62
0
40
1
70
0
41
1
66
1
0
VERTEX
8
BACKGROUND_LAYER
10
63540
20
437619
30
0
40
1
41
1
0
VERTEX
8
BACKGROUND_LAYER
10
63529
20
437315
30
0
40
1
41
1
0
VERTEX
8
BACKGROUND_LAYER
10
63520
20
437011
30
0
40
1
41
1
0
VERTEX
8
BACKGROUND_LAYER
10
63514
20
436707
30
0
40
1
41
1
0
VERTEX
8
BACKGROUND_LAYER
10
63512
20
436404
30
0
40
1
41
1
0
VERTEX
8
BACKGROUND_LAYER
10
63512
20
436100
30
0
40
1
41
1
0
VERTEX
8
BACKGROUND_LAYER
10
63514
20
435796
30
0
40
1
41
1
0
VERTEX
8
BACKGROUND_LAYER
10
63520
20
435492
30
0
40
1
41
1
0
VERTEX
8
BACKGROUND_LAYER
10
63528
20
435188
30
0
40
1
41
1
0
VERTEX
8
BACKGROUND_LAYER
10
63539
20
434885
30
0
40
1
41
1
0
VERTEX
8
BACKGROUND_LAYER
10
63553
20
434581
30
0
40
1
41
1
0
VERTEX
8
BACKGROUND_LAYER
10
63570
20
434278
30
0
40
1
41
1
0
VERTEX
8
BACKGROUND_LAYER
10
63590
20
433974
30
0
40
1
41
1
0
VERTEX
8
BACKGROUND_LAYER
10
63612
20
433671
30
0
40
1
41
1
0
VERTEX
8
BACKGROUND_LAYER
10
63637
20
433369
30
0
40
1
41
1
0
VERTEX
8
BACKGROUND_LAYER
10
63665
20
433066
30
0
40
1
41
1
0
VERTEX
8
BACKGROUND_LAYER
10
63696
20
432763
30
0
40
1
41
1
0
VERTEX
8
BACKGROUND_LAYER
10
63730
20
432462
30
0
40
1
41
1
0
VERTEX
8
BACKGROUND_LAYER
10
63766
20
432160
30
0
40
1
41
1
0
VERTEX
8
BACKGROUND_LAYER
10
63805
20
431859
30
0
40
1
41
1
0
VERTEX
8
BACKGROUND_LAYER
10
63847
20
431558
30
0
40
1
41
1
0
VERTEX
8
BACKGROUND_LAYER
10
63892
20
431257
30
0
40
1
41
1
0
VERTEX
8
BACKGROUND_LAYER
10
63939
20
430957
30
0
40
1
41
1
0
VERTEX
8
BACKGROUND_LAYER
10
63989
20
430657
30
0
40
1
41
1
0
VERTEX
8
BACKGROUND_LAYER
10
64042
20
430358
30
0
40
1
41
1
0
VERTEX
8
BACKGROUND_LAYER
10
64098
20
430059
30
0
40
1
41
1
0
VERTEX
8
BACKGROUND_LAYER
10
64156
20
429761
30
0
40
1
41
1
0
VERTEX
8
BACKGROUND_LAYER
10
64218
20
429463
30
0
40
1
41
1
0
VERTEX
8
BACKGROUND_LAYER
10
64282
20
429166
30
0
40
1
41
1
0
VERTEX
8
BACKGROUND_LAYER
10
64348
20
428870
30
0
40
1
41
1
0
VERTEX
8
BACKGROUND_LAYER
10
62206
20
426791
30
0
40
1
41
1
0
VERTEX
8
BACKGROUND_LAYER
10
62085
20
426855
30
0
40
1
41
1
0
VERTEX
8
BACKGROUND_LAYER
10
61962
20
426916
30
0
40
1
41
1
0
VERTEX
8
BACKGROUND_LAYER
10
61838
20
426974
30
0
40
1
41
1
0
VERTEX
8
BACKGROUND_LAYER
10
61712
20
427029
30
0
40
1
41
1
0
VERTEX
8
BACKGROUND_LAYER
10
61586
20
427082
30
0
40
1
41
1
0
VERTEX
8
BACKGROUND_LAYER
10
61458
20
427133
30
0
40
1
41
1
0
VERTEX
8
BACKGROUND_LAYER
10
61329
20
427180
30
0
40
1
41
1
0
VERTEX
8
BACKGROUND_LAYER
10
61200
20
427224
30
0
40
1
41
1
0
VERTEX
8
BACKGROUND_LAYER
10
61069
20
427266
30
0
40
1
41
1
0
VERTEX
8
BACKGROUND_LAYER
10
60938
20
427305
30
0
40
1
41
1
0
VERTEX
8
BACKGROUND_LAYER
10
60805
20
427341
30
0
40
1
41
1
0
VERTEX
8
BACKGROUND_LAYER
10
60672
20
427375
30
0
40
1
41
1
0
VERTEX
8
BACKGROUND_LAYER
10
60538
20
427405
30
0
40
1
41
1
0
VERTEX
8
BACKGROUND_LAYER
10
60404
20
427432
30
0
40
1
41
1
0
VERTEX
8
BACKGROUND_LAYER
10
60269
20
427457
30
0
40
1
41
1
0
VERTEX
8
BACKGROUND_LAYER
10
60134
20
427478
30
0
40
1
41
1
0
VERTEX
8
BACKGROUND_LAYER
10
59998
20
427497
30
0
40
1
41
1
0
VERTEX
8
BACKGROUND_LAYER
10
59861
20
427513
30
0
40
1
41
1
0
VERTEX
8
BACKGROUND_LAYER
10
59725
20
427526
30
0
40
1
41
1
0
VERTEX
8
BACKGROUND_LAYER
10
59587
20
427535
30
0
40
1
41
1
0
VERTEX
8
BACKGROUND_LAYER
10
59451
20
427542
30
0
40
1
41
1
0
VERTEX
8
BACKGROUND_LAYER
10
59314
20
427546
30
0
40
1
41
1
0
VERTEX
8
BACKGROUND_LAYER
10
59177
20
427547
30
0
40
1
41
1
0
VERTEX
8
BACKGROUND_LAYER
10
59040
20
427545
30
0
40
1
41
1
0
VERTEX
8
BACKGROUND_LAYER
10
58903
20
427540
30
0
40
1
41
1
0
VERTEX
8
BACKGROUND_LAYER
10
58766
20
427532
30
0
40
1
41
1
0
VERTEX
8
BACKGROUND_LAYER
10
58629
20
427521
30
0
40
1
41
1
0
VERTEX
8
BACKGROUND_LAYER
10
58493
20
427508
30
0
40
1
41
1
0
VERTEX
8
BACKGROUND_LAYER
10
58356
20
427491
30
0
40
1
41
1
0
VERTEX
8
BACKGROUND_LAYER
10
58029
20
427468
30
0
40
1
41
1
0
VERTEX
8
BACKGROUND_LAYER
10
57703
20
427439
30
0
40
1
41
1
0
VERTEX
8
BACKGROUND_LAYER
10
57377
20
427405
30
0
40
1
41
1
0
VERTEX
8
BACKGROUND_LAYER
10
57051
20
427366
30
0
40
1
41
1
0
VERTEX
8
BACKGROUND_LAYER
10
56726
20
427321
30
0
40
1
41
1
0
VERTEX
8
BACKGROUND_LAYER
10
56402
20
427270
30
0
40
1
41
1
0
VERTEX
8
BACKGROUND_LAYER
10
56079
20
427215
30
0
40
1
41
1
0
VERTEX
8
BACKGROUND_LAYER
10
55757
20
427153
30
0
40
1
41
1
0
VERTEX
8
BACKGROUND_LAYER
10
55436
20
427086
30
0
40
1
41
1
0
VERTEX
8
BACKGROUND_LAYER
10
55116
20
427014
30
0
40
1
41
1
0
VERTEX
8
BACKGROUND_LAYER
10
54797
20
426937
30
0
40
1
41
1
0
VERTEX
8
BACKGROUND_LAYER
10
54480
20
426854
30
0
40
1
41
1
0
VERTEX
8
BACKGROUND_LAYER
10
54164
20
426765
30
0
40
1
41
1
0
VERTEX
8
BACKGROUND_LAYER
10
53850
20
426672
30
0
40
1
41
1
0
VERTEX
8
BACKGROUND_LAYER
10
53537
20
426573
30
0
40
1
41
1
0
VERTEX
8
BACKGROUND_LAYER
10
53226
20
426469
30
0
40
1
41
1
0
VERTEX
8
BACKGROUND_LAYER
10
52917
20
426359
30
0
40
1
41
1
0
VERTEX
8
BACKGROUND_LAYER
10
52610
20
426245
30
0
40
1
41
1
0
VERTEX
8
BACKGROUND_LAYER
10
52305
20
426125
30
0
40
1
41
1
0
VERTEX
8
BACKGROUND_LAYER
10
52001
20
426000
30
0
40
1
41
1
0
VERTEX
8
BACKGROUND_LAYER
10
51700
20
425870
30
0
40
1
41
1
0
VERTEX
8
BACKGROUND_LAYER
10
51401
20
425735
30
0
40
1
41
1
0
VERTEX
8
BACKGROUND_LAYER
10
51105
20
425595
30
0
40
1
41
1
0
VERTEX
8
BACKGROUND_LAYER
10
50810
20
425450
30
0
40
1
41
1
0
VERTEX
8
BACKGROUND_LAYER
10
50519
20
425300
30
0
40
1
41
1
0
VERTEX
8
BACKGROUND_LAYER
10
50230
20
425145
30
0
40
1
41
1
0
VERTEX
8
BACKGROUND_LAYER
10
49944
20
424985
30
0
40
1
41
1
0
VERTEX
8
BACKGROUND_LAYER
10
49660
20
424820
30
0
40
1
41
1
0
VERTEX
8
BACKGROUND_LAYER
10
49379
20
424651
30
0
40
1
41
1
0
VERTEX
8
BACKGROUND_LAYER
10
47492
20
425590
30
0
40
1
41
1
0
VERTEX
8
BACKGROUND_LAYER
10
59141
20
447795
30
0
40
1
41
1
0
VERTEX
8
BACKGROUND_LAYER
10
63369
20
446018
30
0
40
1
41
1
0
VERTEX
8
BACKGROUND_LAYER
10
60163
20
439209
30
0
40
1
41
1
0
VERTEX
8
BACKGROUND_LAYER
10
63540
20
437619
30
0
40
1
41
1
0
SEQEND
0
CIRCLE
8
fr_4
10
48657
20
432915
30
0
40
249.855
39
0
0
TEXT
8
fr_4
62
0
10
48657
20
432915
30
0
40
499.71
1
38244
50
0
0
CIRCLE
8
fr_4
10
48681
20
431557
30
0
40
249.855
39
0
0
TEXT
8
fr_4
62
0
10
48681
20
431557
30
0
40
499.71
1
38245
50
0
0
CIRCLE
8
fr_4
10
48666
20
430199
30
0
40
249.855
39
0
0
CIRCLE
8
fr_4
10
48654
20
428842
30
0
40
249.855
39
0
0
CIRCLE
8
fr_4
10
48661
20
427483
30
0
40
249.855
39
0
0
CIRCLE
8
fr_4
10
48673
20
426126
30
0
40
249.855
39
0
0
CIRCLE
8
fr_4
10
48676
20
424768
30
0
40
249.855
39
0
0
TEXT
8
fr_4
62
0
10
48676
20
424768
30
0
40
499.71
1
38250
50
0
0
CIRCLE
8
fr_4
10
48670
20
423410
30
0
40
249.855
39
0
0
TEXT
8
fr_4
62
0
10
48670
20
423410
30
0
40
499.71
1
38251
50
0
0
CIRCLE
8
fr_4
10
52279
20
423411
30
0
40
249.855
39
0
0
TEXT
8
fr_4
62
0
10
52279
20
423411
30
0
40
499.71
1
38252
50
0
0
CIRCLE
8
fr_4
10
52292
20
424770
30
0
40
249.855
39
0
0
CIRCLE
8
fr_4
10
52308
20
426126
30
0
40
249.855
39
0
0
CIRCLE
8
fr_4
10
52305
20
427485
30
0
40
249.855
39
0
0
TEXT
8
fr_4
62
0
10
52305
20
427485
30
0
40
499.71
1
38255
50
0
0
CIRCLE
8
fr_4
10
52293
20
428843
30
0
40
249.855
39
0
0
CIRCLE
8
fr_4
10
52288
20
430201
30
0
40
249.855
39
0
0
CIRCLE
8
fr_4
10
52298
20
431558
30
0
40
249.855
39
0
0
CIRCLE
8
fr_4
10
52301
20
432915
30
0
40
249.855
39
0
0
CIRCLE
8
fr_4
10
52303
20
434273
30
0
40
249.855
39
0
0
TEXT
8
fr_4
62
0
10
52303
20
434273
30
0
40
499.71
1
38260
50
0
0
CIRCLE
8
fr_4
10
52298
20
435631
30
0
40
249.855
39
0
0
CIRCLE
8
fr_4
10
52288
20
436988
30
0
40
249.855
39
0
0
CIRCLE
8
fr_4
10
52269
20
438346
30
0
40
249.855
39
0
0
CIRCLE
8
fr_4
10
52251
20
439704
30
0
40
249.855
39
0
0
TEXT
8
fr_4
62
0
10
52251
20
439704
30
0
40
499.71
1
38264
50
0
0
CIRCLE
8
fr_4
10
55959
20
446489
30
0
40
249.855
39
0
0
TEXT
8
fr_4
62
0
10
55959
20
446489
30
0
40
499.71
1
38265
50
0
0
CIRCLE
8
fr_4
10
55945
20
445132
30
0
40
249.855
39
0
0
CIRCLE
8
fr_4
10
55950
20
443774
30
0
40
249.855
39
0
0
CIRCLE
8
fr_4
10
55950
20
442418
30
0
40
249.855
39
0
0
CIRCLE
8
fr_4
10
55945
20
441060
30
0
40
249.855
39
0
0
CIRCLE
8
fr_4
10
55941
20
439704
30
0
40
249.855
39
0
0
TEXT
8
fr_4
62
0
10
55941
20
439704
30
0
40
499.71
1
38270
50
0
0
CIRCLE
8
fr_4
10
55942
20
438345
30
0
40
249.855
39
0
0
CIRCLE
8
fr_4
10
55943
20
436987
30
0
40
249.855
39
0
0
CIRCLE
8
fr_4
10
55943
20
435629
30
0
40
249.855
39
0
0
CIRCLE
8
fr_4
10
55938
20
434272
30
0
40
249.855
39
0
0
CIRCLE
8
fr_4
10
55936
20
432914
30
0
40
249.855
39
0
0
TEXT
8
fr_4
62
0
10
55936
20
432914
30
0
40
499.71
1
38275
50
0
0
CIRCLE
8
fr_4
10
55943
20
431558
30
0
40
249.855
39
0
0
CIRCLE
8
fr_4
10
55945
20
430199
30
0
40
249.855
39
0
0
CIRCLE
8
fr_4
10
55938
20
428842
30
0
40
249.855
39
0
0
CIRCLE
8
fr_4
10
55938
20
427483
30
0
40
249.855
39
0
0
CIRCLE
8
fr_4
10
55939
20
426127
30
0
40
249.855
39
0
0
TEXT
8
fr_4
62
0
10
55939
20
426127
30
0
40
499.71
1
38280
50
0
0
CIRCLE
8
fr_4
10
59592
20
426126
30
0
40
249.855
39
0
0
TEXT
8
fr_4
62
0
10
59592
20
426126
30
0
40
499.71
1
38281
50
0
0
CIRCLE
8
fr_4
10
59595
20
427484
30
0
40
249.855
39
0
0
CIRCLE
8
fr_4
10
59563
20
428844
30
0
40
249.855
39
0
0
CIRCLE
8
fr_4
10
59560
20
430200
30
0
40
249.855
39
0
0
CIRCLE
8
fr_4
10
59556
20
431558
30
0
40
249.855
39
0
0
TEXT
8
fr_4
62
0
10
59556
20
431558
30
0
40
499.71
1
38285
50
0
0
CIRCLE
8
fr_4
10
59537
20
432916
30
0
40
249.855
39
0
0
CIRCLE
8
fr_4
10
59553
20
434274
30
0
40
249.855
39
0
0
CIRCLE
8
fr_4
10
59596
20
435629
30
0
40
249.855
39
0
0
CIRCLE
8
fr_4
10
59581
20
436988
30
0
40
249.855
39
0
0
CIRCLE
8
fr_4
10
59563
20
438345
30
0
40
249.855
39
0
0
TEXT
8
fr_4
62
0
10
59563
20
438345
30
0
40
499.71
1
38290
50
0
0
CIRCLE
8
fr_4
10
59572
20
439705
30
0
40
249.855
39
0
0
CIRCLE
8
fr_4
10
59560
20
441061
30
0
40
249.855
39
0
0
CIRCLE
8
fr_4
10
59549
20
442419
30
0
40
249.855
39
0
0
CIRCLE
8
fr_4
10
59561
20
443778
30
0
40
249.855
39
0
0
CIRCLE
8
fr_4
10
59578
20
445135
30
0
40
249.855
39
0
0
TEXT
8
fr_4
62
0
10
59578
20
445135
30
0
40
499.71
1
38295
50
0
0
CIRCLE
8
fr_4
10
59579
20
446491
30
0
40
249.855
39
0
0
CIRCLE
8
fr_4
10
59573
20
447850
30
0
40
249.855
39
0
0
CIRCLE
8
fr_4
10
59568
20
449208
30
0
40
249.855
39
0
0
TEXT
8
fr_4
62
0
10
59568
20
449208
30
0
40
499.71
1
38298
50
0
0
CIRCLE
8
fr_4
10
63270
20
447847
30
0
40
249.855
39
0
0
TEXT
8
fr_4
62
0
10
63270
20
447847
30
0
40
499.71
1
38299
50
0
0
CIRCLE
8
fr_4
10
63326
20
446490
30
0
40
249.855
39
0
0
TEXT
8
fr_4
62
0
10
63326
20
446490
30
0
40
499.71
1
38300
50
0
0
CIRCLE
8
fr_4
10
63295
20
445133
30
0
40
249.855
39
0
0
CIRCLE
8
fr_4
10
63257
20
443776
30
0
40
249.855
39
0
0
CIRCLE
8
fr_4
10
63236
20
442419
30
0
40
249.855
39
0
0
CIRCLE
8
fr_4
10
63235
20
441061
30
0
40
249.855
39
0
0
CIRCLE
8
fr_4
10
63235
20
439702
30
0
40
249.855
39
0
0
TEXT
8
fr_4
62
0
10
63235
20
439702
30
0
40
499.71
1
38305
50
0
0
CIRCLE
8
fr_4
10
63234
20
438345
30
0
40
249.855
39
0
0
CIRCLE
8
fr_4
10
63230
20
436987
30
0
40
249.855
39
0
0
CIRCLE
8
fr_4
10
63229
20
435630
30
0
40
249.855
39
0
0
CIRCLE
8
fr_4
10
63233
20
434272
30
0
40
249.855
39
0
0
CIRCLE
8
fr_4
10
63232
20
432915
30
0
40
249.855
39
0
0
TEXT
8
fr_4
62
0
10
63232
20
432915
30
0
40
499.71
1
38310
50
0
0
CIRCLE
8
fr_4
10
63227
20
431556
30
0
40
249.855
39
0
0
CIRCLE
8
fr_4
10
63223
20
430200
30
0
40
249.855
39
0
0
CIRCLE
8
fr_4
10
63224
20
428842
30
0
40
249.855
39
0
0
CIRCLE
8
fr_4
10
63220
20
427485
30
0
40
249.855
39
0
0
CIRCLE
8
fr_4
10
63215
20
426127
30
0
40
249.855
39
0
0
TEXT
8
fr_4
62
0
10
63215
20
426127
30
0
40
499.71
1
38315
50
0
0
LINE
8
PHOTO_TICKS_LAYER
10
48922.86
20
432914.1
30
0
11
48423.14
21
432913.9
31
0
0
LINE
8
PHOTO_TICKS_LAYER
10
48923.86
20
431557.1
30
0
11
48424.14
21
431556.9
31
0
0
LINE
8
PHOTO_TICKS_LAYER
10
48923.86
20
430199.1
30
0
11
48424.14
21
430198.9
31
0
0
LINE
8
PHOTO_TICKS_LAYER
10
48924.86
20
428842.1
30
0
11
48425.14
21
428841.9
31
0
0
LINE
8
PHOTO_TICKS_LAYER
10
48923.86
20
427484.1
30
0
11
48424.14
21
427483.9
31
0
0
LINE
8
PHOTO_TICKS_LAYER
10
48924.86
20
426126.1
30
0
11
48425.14
21
426125.9
31
0
0
LINE
8
PHOTO_TICKS_LAYER
10
48924.86
20
424768.1
30
0
11
48425.14
21
424767.9
31
0
0
LINE
8
PHOTO_TICKS_LAYER
10
48925.86
20
423411.1
30
0
11
48426.14
21
423410.9
31
0
0
LINE
8
PHOTO_TICKS_LAYER
10
52556.86
20
439703
30
0
11
52057.14
21
439703
31
0
0
LINE
8
PHOTO_TICKS_LAYER
10
52557.86
20
438346
30
0
11
52058.14
21
438346
31
0
0
LINE
8
PHOTO_TICKS_LAYER
10
52556.86
20
436988
30
0
11
52057.14
21
436988
31
0
0
LINE
8
PHOTO_TICKS_LAYER
10
52557.86
20
435631
30
0
11
52058.14
21
435631
31
0
0
LINE
8
PHOTO_TICKS_LAYER
10
52557.86
20
434272
30
0
11
52058.14
21
434272
31
0
0
LINE
8
PHOTO_TICKS_LAYER
10
52557.86
20
432915
30
0
11
52058.14
21
432915
31
0
0
LINE
8
PHOTO_TICKS_LAYER
10
52557.86
20
431557
30
0
11
52058.14
21
431557
31
0
0
LINE
8
PHOTO_TICKS_LAYER
10
52558.86
20
430200
30
0
11
52059.14
21
430200
31
0
0
LINE
8
PHOTO_TICKS_LAYER
10
52557.86
20
428842
30
0
11
52058.14
21
428842
31
0
0
LINE
8
PHOTO_TICKS_LAYER
10
52558.86
20
427484
30
0
11
52059.14
21
427484
31
0
0
LINE
8
PHOTO_TICKS_LAYER
10
52558.86
20
426126
30
0
11
52059.14
21
426126
31
0
0
LINE
8
PHOTO_TICKS_LAYER
10
52558.86
20
424769
30
0
11
52059.14
21
424769
31
0
0
LINE
8
PHOTO_TICKS_LAYER
10
52558.86
20
423411
30
0
11
52059.14
21
423411
31
0
0
LINE
8
PHOTO_TICKS_LAYER
10
56190.86
20
446491
30
0
11
55691.14
21
446491
31
0
0
LINE
8
PHOTO_TICKS_LAYER
10
56191.86
20
445134
30
0
11
55692.14
21
445134
31
0
0
LINE
8
PHOTO_TICKS_LAYER
10
56190.86
20
443775
30
0
11
55691.14
21
443775
31
0
0
LINE
8
PHOTO_TICKS_LAYER
10
56191.86
20
442418
30
0
11
55692.14
21
442418
31
0
0
LINE
8
PHOTO_TICKS_LAYER
10
56191.86
20
441060
30
0
11
55692.14
21
441060
31
0
0
LINE
8
PHOTO_TICKS_LAYER
10
56191.86
20
439703
30
0
11
55692.14
21
439703
31
0
0
LINE
8
PHOTO_TICKS_LAYER
10
56191.86
20
438345
30
0
11
55692.14
21
438345
31
0
0
LINE
8
PHOTO_TICKS_LAYER
10
56191.86
20
436988
30
0
11
55692.14
21
436988
31
0
0
LINE
8
PHOTO_TICKS_LAYER
10
56191.86
20
435629
30
0
11
55692.14
21
435629
31
0
0
LINE
8
PHOTO_TICKS_LAYER
10
56191.86
20
434272
30
0
11
55692.14
21
434272
31
0
0
LINE
8
PHOTO_TICKS_LAYER
10
56192.86
20
432914
30
0
11
55693.14
21
432914
31
0
0
LINE
8
PHOTO_TICKS_LAYER
10
56191.86
20
431557
30
0
11
55692.14
21
431557
31
0
0
LINE
8
PHOTO_TICKS_LAYER
10
56192.86
20
430199
30
0
11
55693.14
21
430199
31
0
0
LINE
8
PHOTO_TICKS_LAYER
10
56192.86
20
428841
30
0
11
55693.14
21
428841
31
0
0
LINE
8
PHOTO_TICKS_LAYER
10
56192.86
20
427483
30
0
11
55693.14
21
427483
31
0
0
LINE
8
PHOTO_TICKS_LAYER
10
56192.86
20
426126
30
0
11
55693.14
21
426126
31
0
0
LINE
8
PHOTO_TICKS_LAYER
10
59825.86
20
449207
30
0
11
59326.14
21
449207
31
0
0
LINE
8
PHOTO_TICKS_LAYER
10
59825.86
20
447850
30
0
11
59326.14
21
447850
31
0
0
LINE
8
PHOTO_TICKS_LAYER
10
59825.86
20
446491
30
0
11
59326.14
21
446491
31
0
0
LINE
8
PHOTO_TICKS_LAYER
10
59825.86
20
445134
30
0
11
59326.14
21
445134
31
0
0
LINE
8
PHOTO_TICKS_LAYER
10
59825.86
20
443776
30
0
11
59326.14
21
443776
31
0
0
LINE
8
PHOTO_TICKS_LAYER
10
59826.86
20
442419
30
0
11
59327.14
21
442419
31
0
0
LINE
8
PHOTO_TICKS_LAYER
10
59825.86
20
441061
30
0
11
59326.14
21
441061
31
0
0
LINE
8
PHOTO_TICKS_LAYER
10
59826.86
20
439704
30
0
11
59327.14
21
439704
31
0
0
LINE
8
PHOTO_TICKS_LAYER
10
59826.86
20
438345
30
0
11
59327.14
21
438345
31
0
0
LINE
8
PHOTO_TICKS_LAYER
10
59826.86
20
436988
30
0
11
59327.14
21
436988
31
0
0
LINE
8
PHOTO_TICKS_LAYER
10
59826.86
20
435630
30
0
11
59327.14
21
435630
31
0
0
LINE
8
PHOTO_TICKS_LAYER
10
59826.86
20
434273
30
0
11
59327.14
21
434273
31
0
0
LINE
8
PHOTO_TICKS_LAYER
10
59826.86
20
432915
30
0
11
59327.14
21
432915
31
0
0
LINE
8
PHOTO_TICKS_LAYER
10
59826.86
20
431558
30
0
11
59327.14
21
431558
31
0
0
LINE
8
PHOTO_TICKS_LAYER
10
59827.86
20
430199
30
0
11
59328.14
21
430199
31
0
0
LINE
8
PHOTO_TICKS_LAYER
10
59827.86
20
428842
30
0
11
59328.14
21
428842
31
0
0
LINE
8
PHOTO_TICKS_LAYER
10
59827.86
20
427484
30
0
11
59328.14
21
427484
31
0
0
LINE
8
PHOTO_TICKS_LAYER
10
59827.86
20
426127
30
0
11
59328.14
21
426127
31
0
0
LINE
8
PHOTO_TICKS_LAYER
10
63459.86
20
447849
30
0
11
62960.14
21
447849
31
0
0
LINE
8
PHOTO_TICKS_LAYER
10
63460.86
20
446492
30
0
11
62961.14
21
446492
31
0
0
LINE
8
PHOTO_TICKS_LAYER
10
63459.86
20
445134
30
0
11
62960.14
21
445134
31
0
0
LINE
8
PHOTO_TICKS_LAYER
10
63460.86
20
443777
30
0
11
62961.14
21
443777
31
0
0
LINE
8
PHOTO_TICKS_LAYER
10
63459.86
20
442419
30
0
11
62960.14
21
442419
31
0
0
LINE
8
PHOTO_TICKS_LAYER
10
63459.86
20
441061
30
0
11
62960.14
21
441061
31
0
0
LINE
8
PHOTO_TICKS_LAYER
10
63459.86
20
439703
30
0
11
62960.14
21
439703
31
0
0
LINE
8
PHOTO_TICKS_LAYER
10
63459.86
20
438346
30
0
11
62960.14
21
438346
31
0
0
LINE
8
PHOTO_TICKS_LAYER
10
63459.86
20
436988
30
0
11
62960.14
21
436988
31
0
0
LINE
8
PHOTO_TICKS_LAYER
10
63459.86
20
435631
30
0
11
62960.14
21
435631
31
0
0
LINE
8
PHOTO_TICKS_LAYER
10
63459.86
20
434273
30
0
11
62960.14
21
434273
31
0
0
LINE
8
PHOTO_TICKS_LAYER
10
63459.86
20
432916
30
0
11
62960.14
21
432916
31
0
0
LINE
8
PHOTO_TICKS_LAYER
10
63459.86
20
431557
30
0
11
62960.14
21
431557
31
0
0
LINE
8
PHOTO_TICKS_LAYER
10
63459.86
20
430200
30
0
11
62960.14
21
430200
31
0
0
LINE
8
PHOTO_TICKS_LAYER
10
63458.86
20
428842
30
0
11
62959.14
21
428842
31
0
0
LINE
8
PHOTO_TICKS_LAYER
10
63459.86
20
427485
30
0
11
62960.14
21
427485
31
0
0
LINE
8
PHOTO_TICKS_LAYER
10
63458.86
20
426127
30
0
11
62959.14
21
426127
31
0
0
POLYLINE
8
RUN_LAYER
62
1
40
0.000001
70
0
41
0.000001
66
1
0
VERTEX
8
RUN_LAYER
10
48673
20
432914
30
0
40
0.000001
41
0.000001
0
VERTEX
8
RUN_LAYER
10
48674
20
431557
30
0
40
0.000001
41
0.000001
0
VERTEX
8
RUN_LAYER
10
48674
20
430199
30
0
40
0.000001
41
0.000001
0
VERTEX
8
RUN_LAYER
10
48675
20
428842
30
0
40
0.000001
41
0.000001
0
VERTEX
8
RUN_LAYER
10
48674
20
427484
30
0
40
0.000001
41
0.000001
0
VERTEX
8
RUN_LAYER
10
48675
20
426126
30
0
40
0.000001
41
0.000001
0
VERTEX
8
RUN_LAYER
10
48675
20
424768
30
0
40
0.000001
41
0.000001
0
VERTEX
8
RUN_LAYER
10
48676
20
423411
30
0
40
0.000001
41
0.000001
0
SEQEND
0
POLYLINE
8
RUN_LAYER
62
1
40
0.000001
70
0
41
0.000001
66
1
0
VERTEX
8
RUN_LAYER
10
52307
20
439703
30
0
40
0.000001
41
0.000001
0
VERTEX
8
RUN_LAYER
10
52308
20
438346
30
0
40
0.000001
41
0.000001
0
VERTEX
8
RUN_LAYER
10
52307
20
436988
30
0
40
0.000001
41
0.000001
0
VERTEX
8
RUN_LAYER
10
52308
20
435631
30
0
40
0.000001
41
0.000001
0
VERTEX
8
RUN_LAYER
10
52308
20
434272
30
0
40
0.000001
41
0.000001
0
VERTEX
8
RUN_LAYER
10
52308
20
432915
30
0
40
0.000001
41
0.000001
0
VERTEX
8
RUN_LAYER
10
52308
20
431557
30
0
40
0.000001
41
0.000001
0
VERTEX
8
RUN_LAYER
10
52309
20
430200
30
0
40
0.000001
41
0.000001
0
VERTEX
8
RUN_LAYER
10
52308
20
428842
30
0
40
0.000001
41
0.000001
0
VERTEX
8
RUN_LAYER
10
52309
20
427484
30
0
40
0.000001
41
0.000001
0
VERTEX
8
RUN_LAYER
10
52309
20
426126
30
0
40
0.000001
41
0.000001
0
VERTEX
8
RUN_LAYER
10
52309
20
424769
30
0
40
0.000001
41
0.000001
0
VERTEX
8
RUN_LAYER
10
52309
20
423411
30
0
40
0.000001
41
0.000001
0
SEQEND
0
POLYLINE
8
RUN_LAYER
62
1
40
0.000001
70
0
41
0.000001
66
1
0
VERTEX
8
RUN_LAYER
10
55941
20
446491
30
0
40
0.000001
41
0.000001
0
VERTEX
8
RUN_LAYER
10
55942
20
445134
30
0
40
0.000001
41
0.000001
0
VERTEX
8
RUN_LAYER
10
55941
20
443775
30
0
40
0.000001
41
0.000001
0
VERTEX
8
RUN_LAYER
10
55942
20
442418
30
0
40
0.000001
41
0.000001
0
VERTEX
8
RUN_LAYER
10
55942
20
441060
30
0
40
0.000001
41
0.000001
0
VERTEX
8
RUN_LAYER
10
55942
20
439703
30
0
40
0.000001
41
0.000001
0
VERTEX
8
RUN_LAYER
10
55942
20
438345
30
0
40
0.000001
41
0.000001
0
VERTEX
8
RUN_LAYER
10
55942
20
436988
30
0
40
0.000001
41
0.000001
0
VERTEX
8
RUN_LAYER
10
55942
20
435629
30
0
40
0.000001
41
0.000001
0
VERTEX
8
RUN_LAYER
10
55942
20
434272
30
0
40
0.000001
41
0.000001
0
VERTEX
8
RUN_LAYER
10
55943
20
432914
30
0
40
0.000001
41
0.000001
0
VERTEX
8
RUN_LAYER
10
55942
20
431557
30
0
40
0.000001
41
0.000001
0
VERTEX
8
RUN_LAYER
10
55943
20
430199
30
0
40
0.000001
41
0.000001
0
VERTEX
8
RUN_LAYER
10
55943
20
428841
30
0
40
0.000001
41
0.000001
0
VERTEX
8
RUN_LAYER
10
55943
20
427483
30
0
40
0.000001
41
0.000001
0
VERTEX
8
RUN_LAYER
10
55943
20
426126
30
0
40
0.000001
41
0.000001
0
SEQEND
0
POLYLINE
8
RUN_LAYER
62
1
40
0.000001
70
0
41
0.000001
66
1
0
VERTEX
8
RUN_LAYER
10
59576
20
449207
30
0
40
0.000001
41
0.000001
0
VERTEX
8
RUN_LAYER
10
59576
20
447850
30
0
40
0.000001
41
0.000001
0
VERTEX
8
RUN_LAYER
10
59576
20
446491
30
0
40
0.000001
41
0.000001
0
VERTEX
8
RUN_LAYER
10
59576
20
445134
30
0
40
0.000001
41
0.000001
0
VERTEX
8
RUN_LAYER
10
59576
20
443776
30
0
40
0.000001
41
0.000001
0
VERTEX
8
RUN_LAYER
10
59577
20
442419
30
0
40
0.000001
41
0.000001
0
VERTEX
8
RUN_LAYER
10
59576
20
441061
30
0
40
0.000001
41
0.000001
0
VERTEX
8
RUN_LAYER
10
59577
20
439704
30
0
40
0.000001
41
0.000001
0
VERTEX
8
RUN_LAYER
10
59577
20
438345
30
0
40
0.000001
41
0.000001
0
VERTEX
8
RUN_LAYER
10
59577
20
436988
30
0
40
0.000001
41
0.000001
0
VERTEX
8
RUN_LAYER
10
59577
20
435630
30
0
40
0.000001
41
0.000001
0
VERTEX
8
RUN_LAYER
10
59577
20
434273
30
0
40
0.000001
41
0.000001
0
VERTEX
8
RUN_LAYER
10
59577
20
432915
30
0
40
0.000001
41
0.000001
0
VERTEX
8
RUN_LAYER
10
59577
20
431558
30
0
40
0.000001
41
0.000001
0
VERTEX
8
RUN_LAYER
10
59578
20
430199
30
0
40
0.000001
41
0.000001
0
VERTEX
8
RUN_LAYER
10
59578
20
428842
30
0
40
0.000001
41
0.000001
0
VERTEX
8
RUN_LAYER
10
59578
20
427484
30
0
40
0.000001
41
0.000001
0
VERTEX
8
RUN_LAYER
10
59578
20
426127
30
0
40
0.000001
41
0.000001
0
SEQEND
0
POLYLINE
8
RUN_LAYER
62
1
40
0.000001
70
0
41
0.000001
66
1
0
VERTEX
8
RUN_LAYER
10
63210
20
447849
30
0
40
0.000001
41
0.000001
0
VERTEX
8
RUN_LAYER
10
63211
20
446492
30
0
40
0.000001
41
0.000001
0
VERTEX
8
RUN_LAYER
10
63210
20
445134
30
0
40
0.000001
41
0.000001
0
VERTEX
8
RUN_LAYER
10
63211
20
443777
30
0
40
0.000001
41
0.000001
0
VERTEX
8
RUN_LAYER
10
63210
20
442419
30
0
40
0.000001
41
0.000001
0
VERTEX
8
RUN_LAYER
10
63210
20
441061
30
0
40
0.000001
41
0.000001
0
VERTEX
8
RUN_LAYER
10
63210
20
439703
30
0
40
0.000001
41
0.000001
0
VERTEX
8
RUN_LAYER
10
63210
20
438346
30
0
40
0.000001
41
0.000001
0
VERTEX
8
RUN_LAYER
10
63210
20
436988
30
0
40
0.000001
41
0.000001
0
VERTEX
8
RUN_LAYER
10
63210
20
435631
30
0
40
0.000001
41
0.000001
0
VERTEX
8
RUN_LAYER
10
63210
20
434273
30
0
40
0.000001
41
0.000001
0
VERTEX
8
RUN_LAYER
10
63210
20
432916
30
0
40
0.000001
41
0.000001
0
VERTEX
8
RUN_LAYER
10
63210
20
431557
30
0
40
0.000001
41
0.000001
0
VERTEX
8
RUN_LAYER
10
63210
20
430200
30
0
40
0.000001
41
0.000001
0
VERTEX
8
RUN_LAYER
10
63209
20
428842
30
0
40
0.000001
41
0.000001
0
VERTEX
8
RUN_LAYER
10
63210
20
427485
30
0
40
0.000001
41
0.000001
0
VERTEX
8
RUN_LAYER
10
63209
20
426127
30
0
40
0.000001
41
0.000001
0
SEQEND
0
POLYLINE
8
fr_4_frame
40
0.000001
70
1
41
0.000001
66
1
0
VERTEX
8
fr_4_frame
10
51280
20
431260
30
0
40
0.000001
41
0.000001
0
VERTEX
8
fr_4_frame
10
46089
20
431177
30
0
40
0.000001
41
0.000001
0
VERTEX
8
fr_4_frame
10
46034
20
434570
30
0
40
0.000001
41
0.000001
0
VERTEX
8
fr_4_frame
10
51226
20
434653
30
0
40
0.000001
41
0.000001
0
VERTEX
8
fr_4_frame
10
51280
20
431260
30
0
40
0.000001
41
0.000001
0
SEQEND
0
POLYLINE
8
fr_4_frame
40
0.000001
70
1
41
0.000001
66
1
0
VERTEX
8
fr_4_frame
10
51256
20
429829
30
0
40
0.000001
41
0.000001
0
VERTEX
8
fr_4_frame
10
46066
20
429891
30
0
40
0.000001
41
0.000001
0
VERTEX
8
fr_4_frame
10
46105
20
433285
30
0
40
0.000001
41
0.000001
0
VERTEX
8
fr_4_frame
10
51296
20
433223
30
0
40
0.000001
41
0.000001
0
VERTEX
8
fr_4_frame
10
51256
20
429829
30
0
40
0.000001
41
0.000001
0
SEQEND
0
POLYLINE
8
fr_4_frame
40
0.000001
70
1
41
0.000001
66
1
0
VERTEX
8
fr_4_frame
10
51215
20
428432
30
0
40
0.000001
41
0.000001
0
VERTEX
8
fr_4_frame
10
46025
20
428574
30
0
40
0.000001
41
0.000001
0
VERTEX
8
fr_4_frame
10
46118
20
431966
30
0
40
0.000001
41
0.000001
0
VERTEX
8
fr_4_frame
10
51308
20
431824
30
0
40
0.000001
41
0.000001
0
VERTEX
8
fr_4_frame
10
51215
20
428432
30
0
40
0.000001
41
0.000001
0
SEQEND
0
POLYLINE
8
fr_4_frame
40
0.000001
70
1
41
0.000001
66
1
0
VERTEX
8
fr_4_frame
10
51229
20
427114
30
0
40
0.000001
41
0.000001
0
VERTEX
8
fr_4_frame
10
46039
20
427177
30
0
40
0.000001
41
0.000001
0
VERTEX
8
fr_4_frame
10
46078
20
430570
30
0
40
0.000001
41
0.000001
0
VERTEX
8
fr_4_frame
10
51269
20
430508
30
0
40
0.000001
41
0.000001
0
VERTEX
8
fr_4_frame
10
51229
20
427114
30
0
40
0.000001
41
0.000001
0
SEQEND
0
POLYLINE
8
fr_4_frame
40
0.000001
70
1
41
0.000001
66
1
0
VERTEX
8
fr_4_frame
10
51252
20
425778
30
0
40
0.000001
41
0.000001
0
VERTEX
8
fr_4_frame
10
46060
20
425794
30
0
40
0.000001
41
0.000001
0
VERTEX
8
fr_4_frame
10
46071
20
429188
30
0
40
0.000001
41
0.000001
0
VERTEX
8
fr_4_frame
10
51263
20
429172
30
0
40
0.000001
41
0.000001
0
VERTEX
8
fr_4_frame
10
51252
20
425778
30
0
40
0.000001
41
0.000001
0
SEQEND
0
POLYLINE
8
fr_4_frame
40
0.000001
70
1
41
0.000001
66
1
0
VERTEX
8
fr_4_frame
10
51260
20
424416
30
0
40
0.000001
41
0.000001
0
VERTEX
8
fr_4_frame
10
46068
20
424442
30
0
40
0.000001
41
0.000001
0
VERTEX
8
fr_4_frame
10
46086
20
427837
30
0
40
0.000001
41
0.000001
0
VERTEX
8
fr_4_frame
10
51277
20
427811
30
0
40
0.000001
41
0.000001
0
VERTEX
8
fr_4_frame
10
51260
20
424416
30
0
40
0.000001
41
0.000001
0
SEQEND
0
POLYLINE
8
fr_4_frame
40
0.000001
70
1
41
0.000001
66
1
0
VERTEX
8
fr_4_frame
10
51250
20
423036
30
0
40
0.000001
41
0.000001
0
VERTEX
8
fr_4_frame
10
46057
20
423106
30
0
40
0.000001
41
0.000001
0
VERTEX
8
fr_4_frame
10
46103
20
426500
30
0
40
0.000001
41
0.000001
0
VERTEX
8
fr_4_frame
10
51295
20
426430
30
0
40
0.000001
41
0.000001
0
VERTEX
8
fr_4_frame
10
51250
20
423036
30
0
40
0.000001
41
0.000001
0
SEQEND
0
POLYLINE
8
fr_4_frame
40
0.000001
70
1
41
0.000001
66
1
0
VERTEX
8
fr_4_frame
10
51234
20
421665
30
0
40
0.000001
41
0.000001
0
VERTEX
8
fr_4_frame
10
46042
20
421763
30
0
40
0.000001
41
0.000001
0
VERTEX
8
fr_4_frame
10
46106
20
425156
30
0
40
0.000001
41
0.000001
0
VERTEX
8
fr_4_frame
10
51297
20
425057
30
0
40
0.000001
41
0.000001
0
VERTEX
8
fr_4_frame
10
51234
20
421665
30
0
40
0.000001
41
0.000001
0
SEQEND
0
POLYLINE
8
fr_4_frame
40
0.000001
70
1
41
0.000001
66
1
0
VERTEX
8
fr_4_frame
10
49703
20
425139
30
0
40
0.000001
41
0.000001
0
VERTEX
8
fr_4_frame
10
54894
20
425077
30
0
40
0.000001
41
0.000001
0
VERTEX
8
fr_4_frame
10
54855
20
421683
30
0
40
0.000001
41
0.000001
0
VERTEX
8
fr_4_frame
10
49664
20
421745
30
0
40
0.000001
41
0.000001
0
VERTEX
8
fr_4_frame
10
49703
20
425139
30
0
40
0.000001
41
0.000001
0
SEQEND
0
POLYLINE
8
fr_4_frame
40
0.000001
70
1
41
0.000001
66
1
0
VERTEX
8
fr_4_frame
10
49746
20
426542
30
0
40
0.000001
41
0.000001
0
VERTEX
8
fr_4_frame
10
54936
20
426389
30
0
40
0.000001
41
0.000001
0
VERTEX
8
fr_4_frame
10
54837
20
422998
30
0
40
0.000001
41
0.000001
0
VERTEX
8
fr_4_frame
10
49647
20
423150
30
0
40
0.000001
41
0.000001
0
VERTEX
8
fr_4_frame
10
49746
20
426542
30
0
40
0.000001
41
0.000001
0
SEQEND
0
POLYLINE
8
fr_4_frame
40
0.000001
70
1
41
0.000001
66
1
0
VERTEX
8
fr_4_frame
10
49747
20
427876
30
0
40
0.000001
41
0.000001
0
VERTEX
8
fr_4_frame
10
54938
20
427769
30
0
40
0.000001
41
0.000001
0
VERTEX
8
fr_4_frame
10
54869
20
424377
30
0
40
0.000001
41
0.000001
0
VERTEX
8
fr_4_frame
10
49678
20
424483
30
0
40
0.000001
41
0.000001
0
VERTEX
8
fr_4_frame
10
49747
20
427876
30
0
40
0.000001
41
0.000001
0
SEQEND
0
POLYLINE
8
fr_4_frame
40
0.000001
70
1
41
0.000001
66
1
0
VERTEX
8
fr_4_frame
10
49717
20
429195
30
0
40
0.000001
41
0.000001
0
VERTEX
8
fr_4_frame
10
54909
20
429169
30
0
40
0.000001
41
0.000001
0
VERTEX
8
fr_4_frame
10
54892
20
425774
30
0
40
0.000001
41
0.000001
0
VERTEX
8
fr_4_frame
10
49700
20
425800
30
0
40
0.000001
41
0.000001
0
VERTEX
8
fr_4_frame
10
49717
20
429195
30
0
40
0.000001
41
0.000001
0
SEQEND
0
POLYLINE
8
fr_4_frame
40
0.000001
70
1
41
0.000001
66
1
0
VERTEX
8
fr_4_frame
10
49703
20
430549
30
0
40
0.000001
41
0.000001
0
VERTEX
8
fr_4_frame
10
54895
20
430532
30
0
40
0.000001
41
0.000001
0
VERTEX
8
fr_4_frame
10
54883
20
427138
30
0
40
0.000001
41
0.000001
0
VERTEX
8
fr_4_frame
10
49691
20
427154
30
0
40
0.000001
41
0.000001
0
VERTEX
8
fr_4_frame
10
49703
20
430549
30
0
40
0.000001
41
0.000001
0
SEQEND
0
POLYLINE
8
fr_4_frame
40
0.000001
70
1
41
0.000001
66
1
0
VERTEX
8
fr_4_frame
10
49717
20
431937
30
0
40
0.000001
41
0.000001
0
VERTEX
8
fr_4_frame
10
54909
20
431857
30
0
40
0.000001
41
0.000001
0
VERTEX
8
fr_4_frame
10
54858
20
428464
30
0
40
0.000001
41
0.000001
0
VERTEX
8
fr_4_frame
10
49666
20
428544
30
0
40
0.000001
41
0.000001
0
VERTEX
8
fr_4_frame
10
49717
20
431937
30
0
40
0.000001
41
0.000001
0
SEQEND
0
POLYLINE
8
fr_4_frame
40
0.000001
70
1
41
0.000001
66
1
0
VERTEX
8
fr_4_frame
10
49731
20
433299
30
0
40
0.000001
41
0.000001
0
VERTEX
8
fr_4_frame
10
54923
20
433211
30
0
40
0.000001
41
0.000001
0
VERTEX
8
fr_4_frame
10
54865
20
429818
30
0
40
0.000001
41
0.000001
0
VERTEX
8
fr_4_frame
10
49674
20
429906
30
0
40
0.000001
41
0.000001
0
VERTEX
8
fr_4_frame
10
49731
20
433299
30
0
40
0.000001
41
0.000001
0
SEQEND
0
POLYLINE
8
fr_4_frame
40
0.000001
70
1
41
0.000001
66
1
0
VERTEX
8
fr_4_frame
10
49730
20
434652
30
0
40
0.000001
41
0.000001
0
VERTEX
8
fr_4_frame
10
54922
20
434572
30
0
40
0.000001
41
0.000001
0
VERTEX
8
fr_4_frame
10
54871
20
431179
30
0
40
0.000001
41
0.000001
0
VERTEX
8
fr_4_frame
10
49679
20
431259
30
0
40
0.000001
41
0.000001
0
VERTEX
8
fr_4_frame
10
49730
20
434652
30
0
40
0.000001
41
0.000001
0
SEQEND
0
POLYLINE
8
fr_4_frame
40
0.000001
70
1
41
0.000001
66
1
0
VERTEX
8
fr_4_frame
10
49725
20
435996
30
0
40
0.000001
41
0.000001
0
VERTEX
8
fr_4_frame
10
54916
20
435943
30
0
40
0.000001
41
0.000001
0
VERTEX
8
fr_4_frame
10
54881
20
432549
30
0
40
0.000001
41
0.000001
0
VERTEX
8
fr_4_frame
10
49690
20
432602
30
0
40
0.000001
41
0.000001
0
VERTEX
8
fr_4_frame
10
49725
20
435996
30
0
40
0.000001
41
0.000001
0
SEQEND
0
POLYLINE
8
fr_4_frame
40
0.000001
70
1
41
0.000001
66
1
0
VERTEX
8
fr_4_frame
10
49714
20
437345
30
0
40
0.000001
41
0.000001
0
VERTEX
8
fr_4_frame
10
54905
20
437311
30
0
40
0.000001
41
0.000001
0
VERTEX
8
fr_4_frame
10
54882
20
433917
30
0
40
0.000001
41
0.000001
0
VERTEX
8
fr_4_frame
10
49690
20
433951
30
0
40
0.000001
41
0.000001
0
VERTEX
8
fr_4_frame
10
49714
20
437345
30
0
40
0.000001
41
0.000001
0
SEQEND
0
POLYLINE
8
fr_4_frame
40
0.000001
70
1
41
0.000001
66
1
0
VERTEX
8
fr_4_frame
10
49695
20
438689
30
0
40
0.000001
41
0.000001
0
VERTEX
8
fr_4_frame
10
54887
20
438683
30
0
40
0.000001
41
0.000001
0
VERTEX
8
fr_4_frame
10
54882
20
435288
30
0
40
0.000001
41
0.000001
0
VERTEX
8
fr_4_frame
10
49689
20
435294
30
0
40
0.000001
41
0.000001
0
VERTEX
8
fr_4_frame
10
49695
20
438689
30
0
40
0.000001
41
0.000001
0
SEQEND
0
POLYLINE
8
fr_4_frame
40
0.000001
70
1
41
0.000001
66
1
0
VERTEX
8
fr_4_frame
10
49664
20
440028
30
0
40
0.000001
41
0.000001
0
VERTEX
8
fr_4_frame
10
54855
20
440058
30
0
40
0.000001
41
0.000001
0
VERTEX
8
fr_4_frame
10
54874
20
436664
30
0
40
0.000001
41
0.000001
0
VERTEX
8
fr_4_frame
10
49682
20
436635
30
0
40
0.000001
41
0.000001
0
VERTEX
8
fr_4_frame
10
49664
20
440028
30
0
40
0.000001
41
0.000001
0
SEQEND
0
POLYLINE
8
fr_4_frame
40
0.000001
70
1
41
0.000001
66
1
0
VERTEX
8
fr_4_frame
10
49667
20
441418
30
0
40
0.000001
41
0.000001
0
VERTEX
8
fr_4_frame
10
54859
20
441384
30
0
40
0.000001
41
0.000001
0
VERTEX
8
fr_4_frame
10
54835
20
437990
30
0
40
0.000001
41
0.000001
0
VERTEX
8
fr_4_frame
10
49644
20
438024
30
0
40
0.000001
41
0.000001
0
VERTEX
8
fr_4_frame
10
49667
20
441418
30
0
40
0.000001
41
0.000001
0
SEQEND
0
POLYLINE
8
fr_4_frame
40
0.000001
70
1
41
0.000001
66
1
0
VERTEX
8
fr_4_frame
10
58489
20
444695
30
0
40
0.000001
41
0.000001
0
VERTEX
8
fr_4_frame
10
53301
20
444893
30
0
40
0.000001
41
0.000001
0
VERTEX
8
fr_4_frame
10
53430
20
448284
30
0
40
0.000001
41
0.000001
0
VERTEX
8
fr_4_frame
10
58618
20
448085
30
0
40
0.000001
41
0.000001
0
VERTEX
8
fr_4_frame
10
58489
20
444695
30
0
40
0.000001
41
0.000001
0
SEQEND
0
POLYLINE
8
fr_4_frame
40
0.000001
70
1
41
0.000001
66
1
0
VERTEX
8
fr_4_frame
10
58526
20
443413
30
0
40
0.000001
41
0.000001
0
VERTEX
8
fr_4_frame
10
53335
20
443458
30
0
40
0.000001
41
0.000001
0
VERTEX
8
fr_4_frame
10
53364
20
446852
30
0
40
0.000001
41
0.000001
0
VERTEX
8
fr_4_frame
10
58555
20
446807
30
0
40
0.000001
41
0.000001
0
VERTEX
8
fr_4_frame
10
58526
20
443413
30
0
40
0.000001
41
0.000001
0
SEQEND
0
POLYLINE
8
fr_4_frame
40
0.000001
70
1
41
0.000001
66
1
0
VERTEX
8
fr_4_frame
10
58520
20
442037
30
0
40
0.000001
41
0.000001
0
VERTEX
8
fr_4_frame
10
53329
20
442118
30
0
40
0.000001
41
0.000001
0
VERTEX
8
fr_4_frame
10
53380
20
445511
30
0
40
0.000001
41
0.000001
0
VERTEX
8
fr_4_frame
10
58572
20
445430
30
0
40
0.000001
41
0.000001
0
VERTEX
8
fr_4_frame
10
58520
20
442037
30
0
40
0.000001
41
0.000001
0
SEQEND
0
POLYLINE
8
fr_4_frame
40
0.000001
70
1
41
0.000001
66
1
0
VERTEX
8
fr_4_frame
10
58525
20
440690
30
0
40
0.000001
41
0.000001
0
VERTEX
8
fr_4_frame
10
53335
20
440752
30
0
40
0.000001
41
0.000001
0
VERTEX
8
fr_4_frame
10
53374
20
444146
30
0
40
0.000001
41
0.000001
0
VERTEX
8
fr_4_frame
10
58565
20
444084
30
0
40
0.000001
41
0.000001
0
VERTEX
8
fr_4_frame
10
58525
20
440690
30
0
40
0.000001
41
0.000001
0
SEQEND
0
POLYLINE
8
fr_4_frame
40
0.000001
70
1
41
0.000001
66
1
0
VERTEX
8
fr_4_frame
10
58512
20
439319
30
0
40
0.000001
41
0.000001
0
VERTEX
8
fr_4_frame
10
53321
20
439408
30
0
40
0.000001
41
0.000001
0
VERTEX
8
fr_4_frame
10
53378
20
442801
30
0
40
0.000001
41
0.000001
0
VERTEX
8
fr_4_frame
10
58570
20
442712
30
0
40
0.000001
41
0.000001
0
VERTEX
8
fr_4_frame
10
58512
20
439319
30
0
40
0.000001
41
0.000001
0
SEQEND
0
POLYLINE
8
fr_4_frame
40
0.000001
70
1
41
0.000001
66
1
0
VERTEX
8
fr_4_frame
10
58511
20
437967
30
0
40
0.000001
41
0.000001
0
VERTEX
8
fr_4_frame
10
53319
20
438048
30
0
40
0.000001
41
0.000001
0
VERTEX
8
fr_4_frame
10
53370
20
441441
30
0
40
0.000001
41
0.000001
0
VERTEX
8
fr_4_frame
10
58562
20
441360
30
0
40
0.000001
41
0.000001
0
VERTEX
8
fr_4_frame
10
58511
20
437967
30
0
40
0.000001
41
0.000001
0
SEQEND
0
POLYLINE
8
fr_4_frame
40
0.000001
70
1
41
0.000001
66
1
0
VERTEX
8
fr_4_frame
10
58517
20
436617
30
0
40
0.000001
41
0.000001
0
VERTEX
8
fr_4_frame
10
53327
20
436679
30
0
40
0.000001
41
0.000001
0
VERTEX
8
fr_4_frame
10
53366
20
440073
30
0
40
0.000001
41
0.000001
0
VERTEX
8
fr_4_frame
10
58557
20
440010
30
0
40
0.000001
41
0.000001
0
VERTEX
8
fr_4_frame
10
58517
20
436617
30
0
40
0.000001
41
0.000001
0
SEQEND
0
POLYLINE
8
fr_4_frame
40
0.000001
70
1
41
0.000001
66
1
0
VERTEX
8
fr_4_frame
10
58517
20
435256
30
0
40
0.000001
41
0.000001
0
VERTEX
8
fr_4_frame
10
53325
20
435326
30
0
40
0.000001
41
0.000001
0
VERTEX
8
fr_4_frame
10
53370
20
438719
30
0
40
0.000001
41
0.000001
0
VERTEX
8
fr_4_frame
10
58562
20
438649
30
0
40
0.000001
41
0.000001
0
VERTEX
8
fr_4_frame
10
58517
20
435256
30
0
40
0.000001
41
0.000001
0
SEQEND
0
POLYLINE
8
fr_4_frame
40
0.000001
70
1
41
0.000001
66
1
0
VERTEX
8
fr_4_frame
10
58513
20
433892
30
0
40
0.000001
41
0.000001
0
VERTEX
8
fr_4_frame
10
53321
20
433973
30
0
40
0.000001
41
0.000001
0
VERTEX
8
fr_4_frame
10
53373
20
437366
30
0
40
0.000001
41
0.000001
0
VERTEX
8
fr_4_frame
10
58564
20
437286
30
0
40
0.000001
41
0.000001
0
VERTEX
8
fr_4_frame
10
58513
20
433892
30
0
40
0.000001
41
0.000001
0
SEQEND
0
POLYLINE
8
fr_4_frame
40
0.000001
70
1
41
0.000001
66
1
0
VERTEX
8
fr_4_frame
10
58505
20
432532
30
0
40
0.000001
41
0.000001
0
VERTEX
8
fr_4_frame
10
53314
20
432620
30
0
40
0.000001
41
0.000001
0
VERTEX
8
fr_4_frame
10
53371
20
436013
30
0
40
0.000001
41
0.000001
0
VERTEX
8
fr_4_frame
10
58563
20
435925
30
0
40
0.000001
41
0.000001
0
VERTEX
8
fr_4_frame
10
58505
20
432532
30
0
40
0.000001
41
0.000001
0
SEQEND
0
POLYLINE
8
fr_4_frame
40
0.000001
70
1
41
0.000001
66
1
0
VERTEX
8
fr_4_frame
10
58511
20
431186
30
0
40
0.000001
41
0.000001
0
VERTEX
8
fr_4_frame
10
53321
20
431249
30
0
40
0.000001
41
0.000001
0
VERTEX
8
fr_4_frame
10
53360
20
434642
30
0
40
0.000001
41
0.000001
0
VERTEX
8
fr_4_frame
10
58551
20
434580
30
0
40
0.000001
41
0.000001
0
VERTEX
8
fr_4_frame
10
58511
20
431186
30
0
40
0.000001
41
0.000001
0
SEQEND
0
POLYLINE
8
fr_4_frame
40
0.000001
70
1
41
0.000001
66
1
0
VERTEX
8
fr_4_frame
10
58524
20
429839
30
0
40
0.000001
41
0.000001
0
VERTEX
8
fr_4_frame
10
53333
20
429883
30
0
40
0.000001
41
0.000001
0
VERTEX
8
fr_4_frame
10
53362
20
433277
30
0
40
0.000001
41
0.000001
0
VERTEX
8
fr_4_frame
10
58553
20
433233
30
0
40
0.000001
41
0.000001
0
VERTEX
8
fr_4_frame
10
58524
20
429839
30
0
40
0.000001
41
0.000001
0
SEQEND
0
POLYLINE
8
fr_4_frame
40
0.000001
70
1
41
0.000001
66
1
0
VERTEX
8
fr_4_frame
10
58512
20
428458
30
0
40
0.000001
41
0.000001
0
VERTEX
8
fr_4_frame
10
53320
20
428546
30
0
40
0.000001
41
0.000001
0
VERTEX
8
fr_4_frame
10
53378
20
431939
30
0
40
0.000001
41
0.000001
0
VERTEX
8
fr_4_frame
10
58569
20
431851
30
0
40
0.000001
41
0.000001
0
VERTEX
8
fr_4_frame
10
58512
20
428458
30
0
40
0.000001
41
0.000001
0
SEQEND
0
POLYLINE
8
fr_4_frame
40
0.000001
70
1
41
0.000001
66
1
0
VERTEX
8
fr_4_frame
10
58505
20
427101
30
0
40
0.000001
41
0.000001
0
VERTEX
8
fr_4_frame
10
53314
20
427189
30
0
40
0.000001
41
0.000001
0
VERTEX
8
fr_4_frame
10
53371
20
430582
30
0
40
0.000001
41
0.000001
0
VERTEX
8
fr_4_frame
10
58563
20
430494
30
0
40
0.000001
41
0.000001
0
VERTEX
8
fr_4_frame
10
58505
20
427101
30
0
40
0.000001
41
0.000001
0
SEQEND
0
POLYLINE
8
fr_4_frame
40
0.000001
70
1
41
0.000001
66
1
0
VERTEX
8
fr_4_frame
10
58513
20
425755
30
0
40
0.000001
41
0.000001
0
VERTEX
8
fr_4_frame
10
53323
20
425818
30
0
40
0.000001
41
0.000001
0
VERTEX
8
fr_4_frame
10
53362
20
429211
30
0
40
0.000001
41
0.000001
0
VERTEX
8
fr_4_frame
10
58553
20
429149
30
0
40
0.000001
41
0.000001
0
VERTEX
8
fr_4_frame
10
58513
20
425755
30
0
40
0.000001
41
0.000001
0
SEQEND
0
POLYLINE
8
fr_4_frame
40
0.000001
70
1
41
0.000001
66
1
0
VERTEX
8
fr_4_frame
10
58513
20
424395
30
0
40
0.000001
41
0.000001
0
VERTEX
8
fr_4_frame
10
53320
20
424466
30
0
40
0.000001
41
0.000001
0
VERTEX
8
fr_4_frame
10
53366
20
427859
30
0
40
0.000001
41
0.000001
0
VERTEX
8
fr_4_frame
10
58558
20
427789
30
0
40
0.000001
41
0.000001
0
VERTEX
8
fr_4_frame
10
58513
20
424395
30
0
40
0.000001
41
0.000001
0
SEQEND
0
POLYLINE
8
fr_4_frame
40
0.000001
70
1
41
0.000001
66
1
0
VERTEX
8
fr_4_frame
10
57060
20
427916
30
0
40
0.000001
41
0.000001
0
VERTEX
8
fr_4_frame
10
62248
20
427728
30
0
40
0.000001
41
0.000001
0
VERTEX
8
fr_4_frame
10
62125
20
424337
30
0
40
0.000001
41
0.000001
0
VERTEX
8
fr_4_frame
10
56937
20
424525
30
0
40
0.000001
41
0.000001
0
VERTEX
8
fr_4_frame
10
57060
20
427916
30
0
40
0.000001
41
0.000001
0
SEQEND
0
POLYLINE
8
fr_4_frame
40
0.000001
70
1
41
0.000001
66
1
0
VERTEX
8
fr_4_frame
10
57001
20
429184
30
0
40
0.000001
41
0.000001
0
VERTEX
8
fr_4_frame
10
62194
20
429178
30
0
40
0.000001
41
0.000001
0
VERTEX
8
fr_4_frame
10
62188
20
425783
30
0
40
0.000001
41
0.000001
0
VERTEX
8
fr_4_frame
10
56996
20
425789
30
0
40
0.000001
41
0.000001
0
VERTEX
8
fr_4_frame
10
57001
20
429184
30
0
40
0.000001
41
0.000001
0
SEQEND
0
POLYLINE
8
fr_4_frame
40
0.000001
70
1
41
0.000001
66
1
0
VERTEX
8
fr_4_frame
10
56965
20
430534
30
0
40
0.000001
41
0.000001
0
VERTEX
8
fr_4_frame
10
62155
20
430546
30
0
40
0.000001
41
0.000001
0
VERTEX
8
fr_4_frame
10
62162
20
427153
30
0
40
0.000001
41
0.000001
0
VERTEX
8
fr_4_frame
10
56971
20
427141
30
0
40
0.000001
41
0.000001
0
VERTEX
8
fr_4_frame
10
56965
20
430534
30
0
40
0.000001
41
0.000001
0
SEQEND
0
POLYLINE
8
fr_4_frame
40
0.000001
70
1
41
0.000001
66
1
0
VERTEX
8
fr_4_frame
10
56993
20
431941
30
0
40
0.000001
41
0.000001
0
VERTEX
8
fr_4_frame
10
62184
20
431852
30
0
40
0.000001
41
0.000001
0
VERTEX
8
fr_4_frame
10
62127
20
428459
30
0
40
0.000001
41
0.000001
0
VERTEX
8
fr_4_frame
10
56935
20
428548
30
0
40
0.000001
41
0.000001
0
VERTEX
8
fr_4_frame
10
56993
20
431941
30
0
40
0.000001
41
0.000001
0
SEQEND
0
POLYLINE
8
fr_4_frame
40
0.000001
70
1
41
0.000001
66
1
0
VERTEX
8
fr_4_frame
10
56963
20
433259
30
0
40
0.000001
41
0.000001
0
VERTEX
8
fr_4_frame
10
62155
20
433252
30
0
40
0.000001
41
0.000001
0
VERTEX
8
fr_4_frame
10
62150
20
429858
30
0
40
0.000001
41
0.000001
0
VERTEX
8
fr_4_frame
10
56958
20
429864
30
0
40
0.000001
41
0.000001
0
VERTEX
8
fr_4_frame
10
56963
20
433259
30
0
40
0.000001
41
0.000001
0
SEQEND
0
POLYLINE
8
fr_4_frame
40
0.000001
70
1
41
0.000001
66
1
0
VERTEX
8
fr_4_frame
10
56956
20
434635
30
0
40
0.000001
41
0.000001
0
VERTEX
8
fr_4_frame
10
62147
20
434591
30
0
40
0.000001
41
0.000001
0
VERTEX
8
fr_4_frame
10
62118
20
431197
30
0
40
0.000001
41
0.000001
0
VERTEX
8
fr_4_frame
10
56927
20
431241
30
0
40
0.000001
41
0.000001
0
VERTEX
8
fr_4_frame
10
56956
20
434635
30
0
40
0.000001
41
0.000001
0
SEQEND
0
POLYLINE
8
fr_4_frame
40
0.000001
70
1
41
0.000001
66
1
0
VERTEX
8
fr_4_frame
10
57034
20
436081
30
0
40
0.000001
41
0.000001
0
VERTEX
8
fr_4_frame
10
62221
20
435857
30
0
40
0.000001
41
0.000001
0
VERTEX
8
fr_4_frame
10
62073
20
432466
30
0
40
0.000001
41
0.000001
0
VERTEX
8
fr_4_frame
10
56886
20
432691
30
0
40
0.000001
41
0.000001
0
VERTEX
8
fr_4_frame
10
57034
20
436081
30
0
40
0.000001
41
0.000001
0
SEQEND
0
POLYLINE
8
fr_4_frame
40
0.000001
70
1
41
0.000001
66
1
0
VERTEX
8
fr_4_frame
10
57051
20
437401
30
0
40
0.000001
41
0.000001
0
VERTEX
8
fr_4_frame
10
62240
20
437249
30
0
40
0.000001
41
0.000001
0
VERTEX
8
fr_4_frame
10
62141
20
433857
30
0
40
0.000001
41
0.000001
0
VERTEX
8
fr_4_frame
10
56952
20
434010
30
0
40
0.000001
41
0.000001
0
VERTEX
8
fr_4_frame
10
57051
20
437401
30
0
40
0.000001
41
0.000001
0
SEQEND
0
POLYLINE
8
fr_4_frame
40
0.000001
70
1
41
0.000001
66
1
0
VERTEX
8
fr_4_frame
10
56969
20
438661
30
0
40
0.000001
41
0.000001
0
VERTEX
8
fr_4_frame
10
62161
20
438709
30
0
40
0.000001
41
0.000001
0
VERTEX
8
fr_4_frame
10
62192
20
435315
30
0
40
0.000001
41
0.000001
0
VERTEX
8
fr_4_frame
10
57000
20
435267
30
0
40
0.000001
41
0.000001
0
VERTEX
8
fr_4_frame
10
56969
20
438661
30
0
40
0.000001
41
0.000001
0
SEQEND
0
POLYLINE
8
fr_4_frame
40
0.000001
70
1
41
0.000001
66
1
0
VERTEX
8
fr_4_frame
10
56996
20
440086
30
0
40
0.000001
41
0.000001
0
VERTEX
8
fr_4_frame
10
62188
20
439997
30
0
40
0.000001
41
0.000001
0
VERTEX
8
fr_4_frame
10
62130
20
436604
30
0
40
0.000001
41
0.000001
0
VERTEX
8
fr_4_frame
10
56939
20
436693
30
0
40
0.000001
41
0.000001
0
VERTEX
8
fr_4_frame
10
56996
20
440086
30
0
40
0.000001
41
0.000001
0
SEQEND
0
POLYLINE
8
fr_4_frame
40
0.000001
70
1
41
0.000001
66
1
0
VERTEX
8
fr_4_frame
10
56998
20
441437
30
0
40
0.000001
41
0.000001
0
VERTEX
8
fr_4_frame
10
62190
20
441366
30
0
40
0.000001
41
0.000001
0
VERTEX
8
fr_4_frame
10
62145
20
437973
30
0
40
0.000001
41
0.000001
0
VERTEX
8
fr_4_frame
10
56953
20
438043
30
0
40
0.000001
41
0.000001
0
VERTEX
8
fr_4_frame
10
56998
20
441437
30
0
40
0.000001
41
0.000001
0
SEQEND
0
POLYLINE
8
fr_4_frame
40
0.000001
70
1
41
0.000001
66
1
0
VERTEX
8
fr_4_frame
10
56967
20
442762
30
0
40
0.000001
41
0.000001
0
VERTEX
8
fr_4_frame
10
62159
20
442755
30
0
40
0.000001
41
0.000001
0
VERTEX
8
fr_4_frame
10
62154
20
439361
30
0
40
0.000001
41
0.000001
0
VERTEX
8
fr_4_frame
10
56961
20
439367
30
0
40
0.000001
41
0.000001
0
VERTEX
8
fr_4_frame
10
56967
20
442762
30
0
40
0.000001
41
0.000001
0
SEQEND
0
POLYLINE
8
fr_4_frame
40
0.000001
70
1
41
0.000001
66
1
0
VERTEX
8
fr_4_frame
10
56975
20
444151
30
0
40
0.000001
41
0.000001
0
VERTEX
8
fr_4_frame
10
62168
20
444080
30
0
40
0.000001
41
0.000001
0
VERTEX
8
fr_4_frame
10
62122
20
440687
30
0
40
0.000001
41
0.000001
0
VERTEX
8
fr_4_frame
10
56930
20
440757
30
0
40
0.000001
41
0.000001
0
VERTEX
8
fr_4_frame
10
56975
20
444151
30
0
40
0.000001
41
0.000001
0
SEQEND
0
POLYLINE
8
fr_4_frame
40
0.000001
70
1
41
0.000001
66
1
0
VERTEX
8
fr_4_frame
10
57013
20
445545
30
0
40
0.000001
41
0.000001
0
VERTEX
8
fr_4_frame
10
62203
20
445402
30
0
40
0.000001
41
0.000001
0
VERTEX
8
fr_4_frame
10
62110
20
442010
30
0
40
0.000001
41
0.000001
0
VERTEX
8
fr_4_frame
10
56920
20
442153
30
0
40
0.000001
41
0.000001
0
VERTEX
8
fr_4_frame
10
57013
20
445545
30
0
40
0.000001
41
0.000001
0
SEQEND
0
POLYLINE
8
fr_4_frame
40
0.000001
70
1
41
0.000001
66
1
0
VERTEX
8
fr_4_frame
10
57020
20
446890
30
0
40
0.000001
41
0.000001
0
VERTEX
8
fr_4_frame
10
62211
20
446773
30
0
40
0.000001
41
0.000001
0
VERTEX
8
fr_4_frame
10
62136
20
443381
30
0
40
0.000001
41
0.000001
0
VERTEX
8
fr_4_frame
10
56945
20
443497
30
0
40
0.000001
41
0.000001
0
VERTEX
8
fr_4_frame
10
57020
20
446890
30
0
40
0.000001
41
0.000001
0
SEQEND
0
POLYLINE
8
fr_4_frame
40
0.000001
70
1
41
0.000001
66
1
0
VERTEX
8
fr_4_frame
10
57001
20
448214
30
0
40
0.000001
41
0.000001
0
VERTEX
8
fr_4_frame
10
62192
20
448162
30
0
40
0.000001
41
0.000001
0
VERTEX
8
fr_4_frame
10
62156
20
444768
30
0
40
0.000001
41
0.000001
0
VERTEX
8
fr_4_frame
10
56965
20
444821
30
0
40
0.000001
41
0.000001
0
VERTEX
8
fr_4_frame
10
57001
20
448214
30
0
40
0.000001
41
0.000001
0
SEQEND
0
POLYLINE
8
fr_4_frame
40
0.000001
70
1
41
0.000001
66
1
0
VERTEX
8
fr_4_frame
10
56996
20
449573
30
0
40
0.000001
41
0.000001
0
VERTEX
8
fr_4_frame
10
62186
20
449520
30
0
40
0.000001
41
0.000001
0
VERTEX
8
fr_4_frame
10
62151
20
446127
30
0
40
0.000001
41
0.000001
0
VERTEX
8
fr_4_frame
10
56960
20
446179
30
0
40
0.000001
41
0.000001
0
VERTEX
8
fr_4_frame
10
56996
20
449573
30
0
40
0.000001
41
0.000001
0
SEQEND
0
POLYLINE
8
fr_4_frame
40
0.000001
70
1
41
0.000001
66
1
0
VERTEX
8
fr_4_frame
10
56987
20
450927
30
0
40
0.000001
41
0.000001
0
VERTEX
8
fr_4_frame
10
62178
20
450883
30
0
40
0.000001
41
0.000001
0
VERTEX
8
fr_4_frame
10
62149
20
447489
30
0
40
0.000001
41
0.000001
0
VERTEX
8
fr_4_frame
10
56958
20
447533
30
0
40
0.000001
41
0.000001
0
VERTEX
8
fr_4_frame
10
56987
20
450927
30
0
40
0.000001
41
0.000001
0
SEQEND
0
POLYLINE
8
fr_4_frame
40
0.000001
70
1
41
0.000001
66
1
0
VERTEX
8
fr_4_frame
10
65902
20
446205
30
0
40
0.000001
41
0.000001
0
VERTEX
8
fr_4_frame
10
60712
20
446096
30
0
40
0.000001
41
0.000001
0
VERTEX
8
fr_4_frame
10
60639
20
449489
30
0
40
0.000001
41
0.000001
0
VERTEX
8
fr_4_frame
10
65829
20
449599
30
0
40
0.000001
41
0.000001
0
VERTEX
8
fr_4_frame
10
65902
20
446205
30
0
40
0.000001
41
0.000001
0
SEQEND
0
POLYLINE
8
fr_4_frame
40
0.000001
70
1
41
0.000001
66
1
0
VERTEX
8
fr_4_frame
10
65960
20
444853
30
0
40
0.000001
41
0.000001
0
VERTEX
8
fr_4_frame
10
60770
20
444734
30
0
40
0.000001
41
0.000001
0
VERTEX
8
fr_4_frame
10
60691
20
448127
30
0
40
0.000001
41
0.000001
0
VERTEX
8
fr_4_frame
10
65882
20
448247
30
0
40
0.000001
41
0.000001
0
VERTEX
8
fr_4_frame
10
65960
20
444853
30
0
40
0.000001
41
0.000001
0
SEQEND
0
POLYLINE
8
fr_4_frame
40
0.000001
70
1
41
0.000001
66
1
0
VERTEX
8
fr_4_frame
10
65787
20
443286
30
0
40
0.000001
41
0.000001
0
VERTEX
8
fr_4_frame
10
60604
20
443592
30
0
40
0.000001
41
0.000001
0
VERTEX
8
fr_4_frame
10
60804
20
446980
30
0
40
0.000001
41
0.000001
0
VERTEX
8
fr_4_frame
10
65986
20
446674
30
0
40
0.000001
41
0.000001
0
VERTEX
8
fr_4_frame
10
65787
20
443286
30
0
40
0.000001
41
0.000001
0
SEQEND
0
POLYLINE
8
fr_4_frame
40
0.000001
70
1
41
0.000001
66
1
0
VERTEX
8
fr_4_frame
10
65805
20
442009
30
0
40
0.000001
41
0.000001
0
VERTEX
8
fr_4_frame
10
60615
20
442152
30
0
40
0.000001
41
0.000001
0
VERTEX
8
fr_4_frame
10
60708
20
445543
30
0
40
0.000001
41
0.000001
0
VERTEX
8
fr_4_frame
10
65898
20
445401
30
0
40
0.000001
41
0.000001
0
VERTEX
8
fr_4_frame
10
65805
20
442009
30
0
40
0.000001
41
0.000001
0
SEQEND
0
POLYLINE
8
fr_4_frame
40
0.000001
70
1
41
0.000001
66
1
0
VERTEX
8
fr_4_frame
10
65793
20
440664
30
0
40
0.000001
41
0.000001
0
VERTEX
8
fr_4_frame
10
60603
20
440781
30
0
40
0.000001
41
0.000001
0
VERTEX
8
fr_4_frame
10
60678
20
444173
30
0
40
0.000001
41
0.000001
0
VERTEX
8
fr_4_frame
10
65869
20
444057
30
0
40
0.000001
41
0.000001
0
VERTEX
8
fr_4_frame
10
65793
20
440664
30
0
40
0.000001
41
0.000001
0
SEQEND
0
POLYLINE
8
fr_4_frame
40
0.000001
70
1
41
0.000001
66
1
0
VERTEX
8
fr_4_frame
10
65811
20
439333
30
0
40
0.000001
41
0.000001
0
VERTEX
8
fr_4_frame
10
60620
20
439395
30
0
40
0.000001
41
0.000001
0
VERTEX
8
fr_4_frame
10
60660
20
442789
30
0
40
0.000001
41
0.000001
0
VERTEX
8
fr_4_frame
10
65850
20
442726
30
0
40
0.000001
41
0.000001
0
VERTEX
8
fr_4_frame
10
65811
20
439333
30
0
40
0.000001
41
0.000001
0
SEQEND
0
POLYLINE
8
fr_4_frame
40
0.000001
70
1
41
0.000001
66
1
0
VERTEX
8
fr_4_frame
10
65810
20
437974
30
0
40
0.000001
41
0.000001
0
VERTEX
8
fr_4_frame
10
60620
20
438036
30
0
40
0.000001
41
0.000001
0
VERTEX
8
fr_4_frame
10
60659
20
441430
30
0
40
0.000001
41
0.000001
0
VERTEX
8
fr_4_frame
10
65850
20
441367
30
0
40
0.000001
41
0.000001
0
VERTEX
8
fr_4_frame
10
65810
20
437974
30
0
40
0.000001
41
0.000001
0
SEQEND
0
POLYLINE
8
fr_4_frame
40
0.000001
70
1
41
0.000001
66
1
0
VERTEX
8
fr_4_frame
10
65804
20
436609
30
0
40
0.000001
41
0.000001
0
VERTEX
8
fr_4_frame
10
60613
20
436689
30
0
40
0.000001
41
0.000001
0
VERTEX
8
fr_4_frame
10
60664
20
440082
30
0
40
0.000001
41
0.000001
0
VERTEX
8
fr_4_frame
10
65856
20
440002
30
0
40
0.000001
41
0.000001
0
VERTEX
8
fr_4_frame
10
65804
20
436609
30
0
40
0.000001
41
0.000001
0
SEQEND
0
POLYLINE
8
fr_4_frame
40
0.000001
70
1
41
0.000001
66
1
0
VERTEX
8
fr_4_frame
10
65790
20
435238
30
0
40
0.000001
41
0.000001
0
VERTEX
8
fr_4_frame
10
60600
20
435344
30
0
40
0.000001
41
0.000001
0
VERTEX
8
fr_4_frame
10
60669
20
438737
30
0
40
0.000001
41
0.000001
0
VERTEX
8
fr_4_frame
10
65860
20
438630
30
0
40
0.000001
41
0.000001
0
VERTEX
8
fr_4_frame
10
65790
20
435238
30
0
40
0.000001
41
0.000001
0
SEQEND
0
POLYLINE
8
fr_4_frame
40
0.000001
70
1
41
0.000001
66
1
0
VERTEX
8
fr_4_frame
10
65810
20
433911
30
0
40
0.000001
41
0.000001
0
VERTEX
8
fr_4_frame
10
60619
20
433955
30
0
40
0.000001
41
0.000001
0
VERTEX
8
fr_4_frame
10
60648
20
437349
30
0
40
0.000001
41
0.000001
0
VERTEX
8
fr_4_frame
10
65839
20
437305
30
0
40
0.000001
41
0.000001
0
VERTEX
8
fr_4_frame
10
65810
20
433911
30
0
40
0.000001
41
0.000001
0
SEQEND
0
POLYLINE
8
fr_4_frame
40
0.000001
70
1
41
0.000001
66
1
0
VERTEX
8
fr_4_frame
10
65806
20
432540
30
0
40
0.000001
41
0.000001
0
VERTEX
8
fr_4_frame
10
60614
20
432610
30
0
40
0.000001
41
0.000001
0
VERTEX
8
fr_4_frame
10
60659
20
436004
30
0
40
0.000001
41
0.000001
0
VERTEX
8
fr_4_frame
10
65851
20
435933
30
0
40
0.000001
41
0.000001
0
VERTEX
8
fr_4_frame
10
65806
20
432540
30
0
40
0.000001
41
0.000001
0
SEQEND
0
POLYLINE
8
fr_4_frame
40
0.000001
70
1
41
0.000001
66
1
0
VERTEX
8
fr_4_frame
10
65799
20
431174
30
0
40
0.000001
41
0.000001
0
VERTEX
8
fr_4_frame
10
60608
20
431263
30
0
40
0.000001
41
0.000001
0
VERTEX
8
fr_4_frame
10
60665
20
434656
30
0
40
0.000001
41
0.000001
0
VERTEX
8
fr_4_frame
10
65856
20
434567
30
0
40
0.000001
41
0.000001
0
VERTEX
8
fr_4_frame
10
65799
20
431174
30
0
40
0.000001
41
0.000001
0
SEQEND
0
POLYLINE
8
fr_4_frame
40
0.000001
70
1
41
0.000001
66
1
0
VERTEX
8
fr_4_frame
10
65791
20
429810
30
0
40
0.000001
41
0.000001
0
VERTEX
8
fr_4_frame
10
60600
20
429909
30
0
40
0.000001
41
0.000001
0
VERTEX
8
fr_4_frame
10
60664
20
433301
30
0
40
0.000001
41
0.000001
0
VERTEX
8
fr_4_frame
10
65855
20
433203
30
0
40
0.000001
41
0.000001
0
VERTEX
8
fr_4_frame
10
65791
20
429810
30
0
40
0.000001
41
0.000001
0
SEQEND
0
POLYLINE
8
fr_4_frame
40
0.000001
70
1
41
0.000001
66
1
0
VERTEX
8
fr_4_frame
10
65796
20
428468
30
0
40
0.000001
41
0.000001
0
VERTEX
8
fr_4_frame
10
60604
20
428538
30
0
40
0.000001
41
0.000001
0
VERTEX
8
fr_4_frame
10
60650
20
431932
30
0
40
0.000001
41
0.000001
0
VERTEX
8
fr_4_frame
10
65842
20
431861
30
0
40
0.000001
41
0.000001
0
VERTEX
8
fr_4_frame
10
65796
20
428468
30
0
40
0.000001
41
0.000001
0
SEQEND
0
POLYLINE
8
fr_4_frame
40
0.000001
70
1
41
0.000001
66
1
0
VERTEX
8
fr_4_frame
10
65788
20
427096
30
0
40
0.000001
41
0.000001
0
VERTEX
8
fr_4_frame
10
60597
20
427194
30
0
40
0.000001
41
0.000001
0
VERTEX
8
fr_4_frame
10
60661
20
430587
30
0
40
0.000001
41
0.000001
0
VERTEX
8
fr_4_frame
10
65852
20
430489
30
0
40
0.000001
41
0.000001
0
VERTEX
8
fr_4_frame
10
65788
20
427096
30
0
40
0.000001
41
0.000001
0
SEQEND
0
POLYLINE
8
fr_4_frame
40
0.000001
70
1
41
0.000001
66
1
0
VERTEX
8
fr_4_frame
10
65784
20
425739
30
0
40
0.000001
41
0.000001
0
VERTEX
8
fr_4_frame
10
60593
20
425837
30
0
40
0.000001
41
0.000001
0
VERTEX
8
fr_4_frame
10
60656
20
429230
30
0
40
0.000001
41
0.000001
0
VERTEX
8
fr_4_frame
10
65847
20
429132
30
0
40
0.000001
41
0.000001
0
VERTEX
8
fr_4_frame
10
65784
20
425739
30
0
40
0.000001
41
0.000001
0
SEQEND
0
POLYLINE
8
fr_4_frame
40
0.000001
70
1
41
0.000001
66
1
0
VERTEX
8
fr_4_frame
10
65783
20
424386
30
0
40
0.000001
41
0.000001
0
VERTEX
8
fr_4_frame
10
60591
20
424474
30
0
40
0.000001
41
0.000001
0
VERTEX
8
fr_4_frame
10
60648
20
427867
30
0
40
0.000001
41
0.000001
0
VERTEX
8
fr_4_frame
10
65840
20
427779
30
0
40
0.000001
41
0.000001
0
VERTEX
8
fr_4_frame
10
65783
20
424386
30
0
40
0.000001
41
0.000001
0
SEQEND
0
ENDSEC
0
EOF
