0
SECTION
2
HEADER
9
$EXTMIN
10
48673
20
423411
30
0.0
9
$EXTMAX
10
63210
20
449207
30
0.0
9
$LIMMIN
10
42858.2
20
423411
9
$LIMMAX
10
69024.8
20
449207
0
ENDSEC
0
SECTION
2
TABLES
0
TABLE
2
LTYPE
70
4
0
LTYPE
2
CONTINUOUS
70
64
3
Solid line
72
65
73
0
40
0.0
0
LTYPE
2
DASHED
70
64
3
Dashed line
72
65
73
2
40
0.8
49
0.5
49
-0.3
0
LTYPE
2
DOT
70
64
3
Dotted line
72
65
73
2
40
0.2
49
0.1
49
-0.1
0
LTYPE
2
DASHDOT
70
64
3
Dotted line
72
65
73
4
40
1
49
0.5
49
-0.2
49
0.1
49
-0.2
0
LTYPE
2
SMALLDOT
70
64
3
Small dotted
72
65
73
2
40
0.1
49
0
49
-0.1
0
LTYPE
2
CENTER
70
64
3
Centerline
72
65
73
4
40
1.1
49
0.8
49
-0.1
49
0.1
49
-0.1
0
ENDTAB
0
TABLE
2
LAYER
70
9
0
LAYER
2
LIMIT_LAYER
70
0
62
7
6
CONTINUOUS
0
LAYER
2
RUN_LAYER
70
0
62
1
6
CONTINUOUS
0
LAYER
2
BACKGROUND_LAYER
70
0
62
2
6
CONTINUOUS
0
LAYER
2
PHOTO_LAYER
70
0
62
3
6
CONTINUOUS
0
LAYER
2
PHOTO_TICKS_LAYER
70
0
62
1
6
CONTINUOUS
0
LAYER
2
fr_030710
70
0
62
3
6
CONTINUOUS
0
LAYER
2
fr_091110
70
0
62
3
6
CONTINUOUS
0
LAYER
2
fr_1
70
0
62
3
6
CONTINUOUS
0
LAYER
2
fr_2
70
0
62
3
6
CONTINUOUS
0
LAYER
2
fr_3
70
0
62
3
6
CONTINUOUS
0
ENDTAB
0
TABLE
2
VIEW
70
0
0
ENDTAB
0
ENDSEC
0
SECTION
2
ENTITIES
0
TEXT
8
RUN_LAYER
62
0
10
48132.89
20
433723.5
30
0
40
1349.217
1
1
50
0
0
TEXT
8
RUN_LAYER
62
0
10
48136.74
20
421522.1
30
0
40
1349.217
1
1
50
0
0
TEXT
8
RUN_LAYER
62
0
10
51767.15
20
440512.5
30
0
40
1349.217
1
2
50
0
0
TEXT
8
RUN_LAYER
62
0
10
51769.48
20
421522.1
30
0
40
1349.217
1
2
50
0
0
TEXT
8
RUN_LAYER
62
0
10
55401.18
20
447300.5
30
0
40
1349.217
1
3
50
0
0
TEXT
8
RUN_LAYER
62
0
10
55403.45
20
424237.1
30
0
40
1349.217
1
3
50
0
0
TEXT
8
RUN_LAYER
62
0
10
59036.2
20
450016.5
30
0
40
1349.217
1
4
50
0
0
TEXT
8
RUN_LAYER
62
0
10
59038.43
20
424238.1
30
0
40
1349.217
1
4
50
0
0
TEXT
8
RUN_LAYER
62
0
10
62670.31
20
448658.5
30
0
40
1349.217
1
5
50
0
0
TEXT
8
RUN_LAYER
62
0
10
62670.31
20
424243.1
30
0
40
1349.217
1
5
50
0
0
POLYLINE
8
LIMIT_LAYER
40
0.000001
70
1
41
0.000001
66
1
0
VERTEX
8
LIMIT_LAYER
10
58393
20
427523
30
0
40
1
41
1
0
VERTEX
8
LIMIT_LAYER
10
58273
20
427515
30
0
40
1
41
1
0
VERTEX
8
LIMIT_LAYER
10
58149
20
427506
30
0
40
1
41
1
0
VERTEX
8
LIMIT_LAYER
10
58025
20
427497
30
0
40
1
41
1
0
VERTEX
8
LIMIT_LAYER
10
57901
20
427486
30
0
40
1
41
1
0
VERTEX
8
LIMIT_LAYER
10
57777
20
427475
30
0
40
1
41
1
0
VERTEX
8
LIMIT_LAYER
10
57652
20
427463
30
0
40
1
41
1
0
VERTEX
8
LIMIT_LAYER
10
57528
20
427450
30
0
40
1
41
1
0
VERTEX
8
LIMIT_LAYER
10
57405
20
427437
30
0
40
1
41
1
0
VERTEX
8
LIMIT_LAYER
10
57281
20
427422
30
0
40
1
41
1
0
VERTEX
8
LIMIT_LAYER
10
57157
20
427407
30
0
40
1
41
1
0
VERTEX
8
LIMIT_LAYER
10
57033
20
427391
30
0
40
1
41
1
0
VERTEX
8
LIMIT_LAYER
10
56910
20
427374
30
0
40
1
41
1
0
VERTEX
8
LIMIT_LAYER
10
56787
20
427357
30
0
40
1
41
1
0
VERTEX
8
LIMIT_LAYER
10
56663
20
427338
30
0
40
1
41
1
0
VERTEX
8
LIMIT_LAYER
10
56540
20
427319
30
0
40
1
41
1
0
VERTEX
8
LIMIT_LAYER
10
56417
20
427299
30
0
40
1
41
1
0
VERTEX
8
LIMIT_LAYER
10
56294
20
427279
30
0
40
1
41
1
0
VERTEX
8
LIMIT_LAYER
10
56171
20
427257
30
0
40
1
41
1
0
VERTEX
8
LIMIT_LAYER
10
56049
20
427235
30
0
40
1
41
1
0
VERTEX
8
LIMIT_LAYER
10
55926
20
427212
30
0
40
1
41
1
0
VERTEX
8
LIMIT_LAYER
10
55804
20
427188
30
0
40
1
41
1
0
VERTEX
8
LIMIT_LAYER
10
55682
20
427163
30
0
40
1
41
1
0
VERTEX
8
LIMIT_LAYER
10
55560
20
427138
30
0
40
1
41
1
0
VERTEX
8
LIMIT_LAYER
10
55438
20
427111
30
0
40
1
41
1
0
VERTEX
8
LIMIT_LAYER
10
55316
20
427084
30
0
40
1
41
1
0
VERTEX
8
LIMIT_LAYER
10
55195
20
427057
30
0
40
1
41
1
0
VERTEX
8
LIMIT_LAYER
10
55073
20
427028
30
0
40
1
41
1
0
VERTEX
8
LIMIT_LAYER
10
54952
20
426999
30
0
40
1
41
1
0
VERTEX
8
LIMIT_LAYER
10
54831
20
426969
30
0
40
1
41
1
0
VERTEX
8
LIMIT_LAYER
10
54711
20
426938
30
0
40
1
41
1
0
VERTEX
8
LIMIT_LAYER
10
54590
20
426906
30
0
40
1
41
1
0
VERTEX
8
LIMIT_LAYER
10
54470
20
426874
30
0
40
1
41
1
0
VERTEX
8
LIMIT_LAYER
10
54349
20
426840
30
0
40
1
41
1
0
VERTEX
8
LIMIT_LAYER
10
54230
20
426806
30
0
40
1
41
1
0
VERTEX
8
LIMIT_LAYER
10
54110
20
426772
30
0
40
1
41
1
0
VERTEX
8
LIMIT_LAYER
10
53990
20
426736
30
0
40
1
41
1
0
VERTEX
8
LIMIT_LAYER
10
53871
20
426700
30
0
40
1
41
1
0
VERTEX
8
LIMIT_LAYER
10
53752
20
426663
30
0
40
1
41
1
0
VERTEX
8
LIMIT_LAYER
10
53633
20
426625
30
0
40
1
41
1
0
VERTEX
8
LIMIT_LAYER
10
53515
20
426586
30
0
40
1
41
1
0
VERTEX
8
LIMIT_LAYER
10
53397
20
426547
30
0
40
1
41
1
0
VERTEX
8
LIMIT_LAYER
10
53279
20
426507
30
0
40
1
41
1
0
VERTEX
8
LIMIT_LAYER
10
53161
20
426466
30
0
40
1
41
1
0
VERTEX
8
LIMIT_LAYER
10
53043
20
426424
30
0
40
1
41
1
0
VERTEX
8
LIMIT_LAYER
10
52926
20
426382
30
0
40
1
41
1
0
VERTEX
8
LIMIT_LAYER
10
52809
20
426339
30
0
40
1
41
1
0
VERTEX
8
LIMIT_LAYER
10
52693
20
426295
30
0
40
1
41
1
0
VERTEX
8
LIMIT_LAYER
10
52576
20
426250
30
0
40
1
41
1
0
VERTEX
8
LIMIT_LAYER
10
52460
20
426205
30
0
40
1
41
1
0
VERTEX
8
LIMIT_LAYER
10
52344
20
426159
30
0
40
1
41
1
0
VERTEX
8
LIMIT_LAYER
10
52229
20
426112
30
0
40
1
41
1
0
VERTEX
8
LIMIT_LAYER
10
52114
20
426064
30
0
40
1
41
1
0
VERTEX
8
LIMIT_LAYER
10
51999
20
426016
30
0
40
1
41
1
0
VERTEX
8
LIMIT_LAYER
10
51884
20
425967
30
0
40
1
41
1
0
VERTEX
8
LIMIT_LAYER
10
51770
20
425917
30
0
40
1
41
1
0
VERTEX
8
LIMIT_LAYER
10
51656
20
425867
30
0
40
1
41
1
0
VERTEX
8
LIMIT_LAYER
10
51542
20
425815
30
0
40
1
41
1
0
VERTEX
8
LIMIT_LAYER
10
51429
20
425763
30
0
40
1
41
1
0
VERTEX
8
LIMIT_LAYER
10
51316
20
425711
30
0
40
1
41
1
0
VERTEX
8
LIMIT_LAYER
10
51204
20
425657
30
0
40
1
41
1
0
VERTEX
8
LIMIT_LAYER
10
51091
20
425603
30
0
40
1
41
1
0
VERTEX
8
LIMIT_LAYER
10
50979
20
425548
30
0
40
1
41
1
0
VERTEX
8
LIMIT_LAYER
10
50868
20
425492
30
0
40
1
41
1
0
VERTEX
8
LIMIT_LAYER
10
50757
20
425436
30
0
40
1
41
1
0
VERTEX
8
LIMIT_LAYER
10
50646
20
425379
30
0
40
1
41
1
0
VERTEX
8
LIMIT_LAYER
10
50535
20
425321
30
0
40
1
41
1
0
VERTEX
8
LIMIT_LAYER
10
50425
20
425263
30
0
40
1
41
1
0
VERTEX
8
LIMIT_LAYER
10
50316
20
425204
30
0
40
1
41
1
0
VERTEX
8
LIMIT_LAYER
10
50206
20
425144
30
0
40
1
41
1
0
VERTEX
8
LIMIT_LAYER
10
50097
20
425083
30
0
40
1
41
1
0
VERTEX
8
LIMIT_LAYER
10
49989
20
425022
30
0
40
1
41
1
0
VERTEX
8
LIMIT_LAYER
10
49881
20
424960
30
0
40
1
41
1
0
VERTEX
8
LIMIT_LAYER
10
49773
20
424897
30
0
40
1
41
1
0
VERTEX
8
LIMIT_LAYER
10
49666
20
424834
30
0
40
1
41
1
0
VERTEX
8
LIMIT_LAYER
10
49559
20
424770
30
0
40
1
41
1
0
VERTEX
8
LIMIT_LAYER
10
49452
20
424705
30
0
40
1
41
1
0
VERTEX
8
LIMIT_LAYER
10
49416
20
424683
30
0
40
1
41
1
0
VERTEX
8
LIMIT_LAYER
10
47528
20
425622
30
0
40
1
41
1
0
VERTEX
8
LIMIT_LAYER
10
59178
20
447827
30
0
40
1
41
1
0
VERTEX
8
LIMIT_LAYER
10
63405
20
446050
30
0
40
1
41
1
0
VERTEX
8
LIMIT_LAYER
10
59433
20
437612
30
0
40
1
41
1
0
VERTEX
8
LIMIT_LAYER
10
58393
20
427523
30
0
40
1
41
1
0
SEQEND
0
POLYLINE
8
BACKGROUND_LAYER
62
0
40
1
70
0
41
1
66
1
0
VERTEX
8
BACKGROUND_LAYER
10
63540
20
437619
30
0
40
1
41
1
0
VERTEX
8
BACKGROUND_LAYER
10
63529
20
437315
30
0
40
1
41
1
0
VERTEX
8
BACKGROUND_LAYER
10
63520
20
437011
30
0
40
1
41
1
0
VERTEX
8
BACKGROUND_LAYER
10
63514
20
436707
30
0
40
1
41
1
0
VERTEX
8
BACKGROUND_LAYER
10
63512
20
436404
30
0
40
1
41
1
0
VERTEX
8
BACKGROUND_LAYER
10
63512
20
436100
30
0
40
1
41
1
0
VERTEX
8
BACKGROUND_LAYER
10
63514
20
435796
30
0
40
1
41
1
0
VERTEX
8
BACKGROUND_LAYER
10
63520
20
435492
30
0
40
1
41
1
0
VERTEX
8
BACKGROUND_LAYER
10
63528
20
435188
30
0
40
1
41
1
0
VERTEX
8
BACKGROUND_LAYER
10
63539
20
434885
30
0
40
1
41
1
0
VERTEX
8
BACKGROUND_LAYER
10
63553
20
434581
30
0
40
1
41
1
0
VERTEX
8
BACKGROUND_LAYER
10
63570
20
434278
30
0
40
1
41
1
0
VERTEX
8
BACKGROUND_LAYER
10
63590
20
433974
30
0
40
1
41
1
0
VERTEX
8
BACKGROUND_LAYER
10
63612
20
433671
30
0
40
1
41
1
0
VERTEX
8
BACKGROUND_LAYER
10
63637
20
433369
30
0
40
1
41
1
0
VERTEX
8
BACKGROUND_LAYER
10
63665
20
433066
30
0
40
1
41
1
0
VERTEX
8
BACKGROUND_LAYER
10
63696
20
432763
30
0
40
1
41
1
0
VERTEX
8
BACKGROUND_LAYER
10
63730
20
432462
30
0
40
1
41
1
0
VERTEX
8
BACKGROUND_LAYER
10
63766
20
432160
30
0
40
1
41
1
0
VERTEX
8
BACKGROUND_LAYER
10
63805
20
431859
30
0
40
1
41
1
0
VERTEX
8
BACKGROUND_LAYER
10
63847
20
431558
30
0
40
1
41
1
0
VERTEX
8
BACKGROUND_LAYER
10
63892
20
431257
30
0
40
1
41
1
0
VERTEX
8
BACKGROUND_LAYER
10
63939
20
430957
30
0
40
1
41
1
0
VERTEX
8
BACKGROUND_LAYER
10
63989
20
430657
30
0
40
1
41
1
0
VERTEX
8
BACKGROUND_LAYER
10
64042
20
430358
30
0
40
1
41
1
0
VERTEX
8
BACKGROUND_LAYER
10
64098
20
430059
30
0
40
1
41
1
0
VERTEX
8
BACKGROUND_LAYER
10
64156
20
429761
30
0
40
1
41
1
0
VERTEX
8
BACKGROUND_LAYER
10
64218
20
429463
30
0
40
1
41
1
0
VERTEX
8
BACKGROUND_LAYER
10
64282
20
429166
30
0
40
1
41
1
0
VERTEX
8
BACKGROUND_LAYER
10
64348
20
428870
30
0
40
1
41
1
0
VERTEX
8
BACKGROUND_LAYER
10
62206
20
426791
30
0
40
1
41
1
0
VERTEX
8
BACKGROUND_LAYER
10
62085
20
426855
30
0
40
1
41
1
0
VERTEX
8
BACKGROUND_LAYER
10
61962
20
426916
30
0
40
1
41
1
0
VERTEX
8
BACKGROUND_LAYER
10
61838
20
426974
30
0
40
1
41
1
0
VERTEX
8
BACKGROUND_LAYER
10
61712
20
427029
30
0
40
1
41
1
0
VERTEX
8
BACKGROUND_LAYER
10
61586
20
427082
30
0
40
1
41
1
0
VERTEX
8
BACKGROUND_LAYER
10
61458
20
427133
30
0
40
1
41
1
0
VERTEX
8
BACKGROUND_LAYER
10
61329
20
427180
30
0
40
1
41
1
0
VERTEX
8
BACKGROUND_LAYER
10
61200
20
427224
30
0
40
1
41
1
0
VERTEX
8
BACKGROUND_LAYER
10
61069
20
427266
30
0
40
1
41
1
0
VERTEX
8
BACKGROUND_LAYER
10
60938
20
427305
30
0
40
1
41
1
0
VERTEX
8
BACKGROUND_LAYER
10
60805
20
427341
30
0
40
1
41
1
0
VERTEX
8
BACKGROUND_LAYER
10
60672
20
427375
30
0
40
1
41
1
0
VERTEX
8
BACKGROUND_LAYER
10
60538
20
427405
30
0
40
1
41
1
0
VERTEX
8
BACKGROUND_LAYER
10
60404
20
427432
30
0
40
1
41
1
0
VERTEX
8
BACKGROUND_LAYER
10
60269
20
427457
30
0
40
1
41
1
0
VERTEX
8
BACKGROUND_LAYER
10
60134
20
427478
30
0
40
1
41
1
0
VERTEX
8
BACKGROUND_LAYER
10
59998
20
427497
30
0
40
1
41
1
0
VERTEX
8
BACKGROUND_LAYER
10
59861
20
427513
30
0
40
1
41
1
0
VERTEX
8
BACKGROUND_LAYER
10
59725
20
427526
30
0
40
1
41
1
0
VERTEX
8
BACKGROUND_LAYER
10
59587
20
427535
30
0
40
1
41
1
0
VERTEX
8
BACKGROUND_LAYER
10
59451
20
427542
30
0
40
1
41
1
0
VERTEX
8
BACKGROUND_LAYER
10
59314
20
427546
30
0
40
1
41
1
0
VERTEX
8
BACKGROUND_LAYER
10
59177
20
427547
30
0
40
1
41
1
0
VERTEX
8
BACKGROUND_LAYER
10
59040
20
427545
30
0
40
1
41
1
0
VERTEX
8
BACKGROUND_LAYER
10
58903
20
427540
30
0
40
1
41
1
0
VERTEX
8
BACKGROUND_LAYER
10
58766
20
427532
30
0
40
1
41
1
0
VERTEX
8
BACKGROUND_LAYER
10
58629
20
427521
30
0
40
1
41
1
0
VERTEX
8
BACKGROUND_LAYER
10
58493
20
427508
30
0
40
1
41
1
0
VERTEX
8
BACKGROUND_LAYER
10
58356
20
427491
30
0
40
1
41
1
0
VERTEX
8
BACKGROUND_LAYER
10
58029
20
427468
30
0
40
1
41
1
0
VERTEX
8
BACKGROUND_LAYER
10
57703
20
427439
30
0
40
1
41
1
0
VERTEX
8
BACKGROUND_LAYER
10
57377
20
427405
30
0
40
1
41
1
0
VERTEX
8
BACKGROUND_LAYER
10
57051
20
427366
30
0
40
1
41
1
0
VERTEX
8
BACKGROUND_LAYER
10
56726
20
427321
30
0
40
1
41
1
0
VERTEX
8
BACKGROUND_LAYER
10
56402
20
427270
30
0
40
1
41
1
0
VERTEX
8
BACKGROUND_LAYER
10
56079
20
427215
30
0
40
1
41
1
0
VERTEX
8
BACKGROUND_LAYER
10
55757
20
427153
30
0
40
1
41
1
0
VERTEX
8
BACKGROUND_LAYER
10
55436
20
427086
30
0
40
1
41
1
0
VERTEX
8
BACKGROUND_LAYER
10
55116
20
427014
30
0
40
1
41
1
0
VERTEX
8
BACKGROUND_LAYER
10
54797
20
426937
30
0
40
1
41
1
0
VERTEX
8
BACKGROUND_LAYER
10
54480
20
426854
30
0
40
1
41
1
0
VERTEX
8
BACKGROUND_LAYER
10
54164
20
426765
30
0
40
1
41
1
0
VERTEX
8
BACKGROUND_LAYER
10
53850
20
426672
30
0
40
1
41
1
0
VERTEX
8
BACKGROUND_LAYER
10
53537
20
426573
30
0
40
1
41
1
0
VERTEX
8
BACKGROUND_LAYER
10
53226
20
426469
30
0
40
1
41
1
0
VERTEX
8
BACKGROUND_LAYER
10
52917
20
426359
30
0
40
1
41
1
0
VERTEX
8
BACKGROUND_LAYER
10
52610
20
426245
30
0
40
1
41
1
0
VERTEX
8
BACKGROUND_LAYER
10
52305
20
426125
30
0
40
1
41
1
0
VERTEX
8
BACKGROUND_LAYER
10
52001
20
426000
30
0
40
1
41
1
0
VERTEX
8
BACKGROUND_LAYER
10
51700
20
425870
30
0
40
1
41
1
0
VERTEX
8
BACKGROUND_LAYER
10
51401
20
425735
30
0
40
1
41
1
0
VERTEX
8
BACKGROUND_LAYER
10
51105
20
425595
30
0
40
1
41
1
0
VERTEX
8
BACKGROUND_LAYER
10
50810
20
425450
30
0
40
1
41
1
0
VERTEX
8
BACKGROUND_LAYER
10
50519
20
425300
30
0
40
1
41
1
0
VERTEX
8
BACKGROUND_LAYER
10
50230
20
425145
30
0
40
1
41
1
0
VERTEX
8
BACKGROUND_LAYER
10
49944
20
424985
30
0
40
1
41
1
0
VERTEX
8
BACKGROUND_LAYER
10
49660
20
424820
30
0
40
1
41
1
0
VERTEX
8
BACKGROUND_LAYER
10
49379
20
424651
30
0
40
1
41
1
0
VERTEX
8
BACKGROUND_LAYER
10
47492
20
425590
30
0
40
1
41
1
0
VERTEX
8
BACKGROUND_LAYER
10
59141
20
447795
30
0
40
1
41
1
0
VERTEX
8
BACKGROUND_LAYER
10
63369
20
446018
30
0
40
1
41
1
0
VERTEX
8
BACKGROUND_LAYER
10
60163
20
439209
30
0
40
1
41
1
0
VERTEX
8
BACKGROUND_LAYER
10
63540
20
437619
30
0
40
1
41
1
0
SEQEND
0
CIRCLE
8
fr_3
10
48648
20
423410
30
0
40
449.739
39
0
0
TEXT
8
fr_3
62
0
10
48648
20
423410
30
0
40
1079.374
1
31151
50
0
0
CIRCLE
8
fr_3
10
48648
20
424768
30
0
40
449.739
39
0
0
CIRCLE
8
fr_3
10
48649
20
426126
30
0
40
449.739
39
0
0
CIRCLE
8
fr_3
10
48633
20
427484
30
0
40
449.739
39
0
0
CIRCLE
8
fr_3
10
48646
20
428842
30
0
40
449.739
39
0
0
TEXT
8
fr_3
62
0
10
48646
20
428842
30
0
40
1079.374
1
31155
50
0
0
CIRCLE
8
fr_3
10
48658
20
430200
30
0
40
449.739
39
0
0
CIRCLE
8
fr_3
10
48673
20
431557
30
0
40
449.739
39
0
0
CIRCLE
8
fr_3
10
48679
20
432914
30
0
40
449.739
39
0
0
TEXT
8
fr_3
62
0
10
48679
20
432914
30
0
40
1079.374
1
31158
50
0
0
CIRCLE
8
fr_3
10
52321
20
439703
30
0
40
449.739
39
0
0
TEXT
8
fr_3
62
0
10
52321
20
439703
30
0
40
1079.374
1
31138
50
0
0
CIRCLE
8
fr_3
10
52319
20
438346
30
0
40
449.739
39
0
0
CIRCLE
8
fr_3
10
52306
20
436987
30
0
40
449.739
39
0
0
TEXT
8
fr_3
62
0
10
52306
20
436987
30
0
40
1079.374
1
31140
50
0
0
CIRCLE
8
fr_3
10
52304
20
435631
30
0
40
449.739
39
0
0
CIRCLE
8
fr_3
10
52311
20
434272
30
0
40
449.739
39
0
0
CIRCLE
8
fr_3
10
52311
20
432914
30
0
40
449.739
39
0
0
CIRCLE
8
fr_3
10
52302
20
431556
30
0
40
449.739
39
0
0
CIRCLE
8
fr_3
10
52296
20
430200
30
0
40
449.739
39
0
0
TEXT
8
fr_3
62
0
10
52296
20
430200
30
0
40
1079.374
1
31145
50
0
0
CIRCLE
8
fr_3
10
52293
20
428841
30
0
40
449.739
39
0
0
CIRCLE
8
fr_3
10
52293
20
427485
30
0
40
449.739
39
0
0
CIRCLE
8
fr_3
10
52296
20
426127
30
0
40
449.739
39
0
0
CIRCLE
8
fr_3
10
55883
20
426127
30
0
40
449.739
39
0
0
TEXT
8
fr_3
62
0
10
55883
20
426127
30
0
40
1079.374
1
31087
50
0
0
CIRCLE
8
fr_3
10
55900
20
427484
30
0
40
449.739
39
0
0
CIRCLE
8
fr_3
10
55932
20
428842
30
0
40
449.739
39
0
0
CIRCLE
8
fr_3
10
55937
20
430199
30
0
40
449.739
39
0
0
TEXT
8
fr_3
62
0
10
55937
20
430199
30
0
40
1079.374
1
31090
50
0
0
CIRCLE
8
fr_3
10
55933
20
431558
30
0
40
449.739
39
0
0
CIRCLE
8
fr_3
10
55924
20
432915
30
0
40
449.739
39
0
0
CIRCLE
8
fr_3
10
55902
20
434272
30
0
40
449.739
39
0
0
CIRCLE
8
fr_3
10
55895
20
435630
30
0
40
449.739
39
0
0
CIRCLE
8
fr_3
10
55911
20
436989
30
0
40
449.739
39
0
0
TEXT
8
fr_3
62
0
10
55911
20
436989
30
0
40
1079.374
1
31095
50
0
0
CIRCLE
8
fr_3
10
55908
20
438345
30
0
40
449.739
39
0
0
CIRCLE
8
fr_3
10
55925
20
439703
30
0
40
449.739
39
0
0
CIRCLE
8
fr_3
10
55937
20
441060
30
0
40
449.739
39
0
0
CIRCLE
8
fr_3
10
55948
20
442418
30
0
40
449.739
39
0
0
CIRCLE
8
fr_3
10
55956
20
443775
30
0
40
449.739
39
0
0
TEXT
8
fr_3
62
0
10
55956
20
443775
30
0
40
1079.374
1
31100
50
0
0
CIRCLE
8
fr_3
10
55955
20
445134
30
0
40
449.739
39
0
0
CIRCLE
8
fr_3
10
55975
20
446491
30
0
40
449.739
39
0
0
TEXT
8
fr_3
62
0
10
55975
20
446491
30
0
40
1079.374
1
31102
50
0
0
CIRCLE
8
fr_3
10
59544
20
449207
30
0
40
449.739
39
0
0
TEXT
8
fr_3
62
0
10
59544
20
449207
30
0
40
1079.374
1
31103
50
0
0
CIRCLE
8
fr_3
10
59541
20
447850
30
0
40
449.739
39
0
0
CIRCLE
8
fr_3
10
59543
20
446491
30
0
40
449.739
39
0
0
TEXT
8
fr_3
62
0
10
59543
20
446491
30
0
40
1079.374
1
31105
50
0
0
CIRCLE
8
fr_3
10
59538
20
445134
30
0
40
449.739
39
0
0
CIRCLE
8
fr_3
10
59541
20
443776
30
0
40
449.739
39
0
0
CIRCLE
8
fr_3
10
59539
20
442419
30
0
40
449.739
39
0
0
CIRCLE
8
fr_3
10
59544
20
441060
30
0
40
449.739
39
0
0
CIRCLE
8
fr_3
10
59548
20
439704
30
0
40
449.739
39
0
0
TEXT
8
fr_3
62
0
10
59548
20
439704
30
0
40
1079.374
1
31110
50
0
0
CIRCLE
8
fr_3
10
59547
20
438345
30
0
40
449.739
39
0
0
CIRCLE
8
fr_3
10
59545
20
436988
30
0
40
449.739
39
0
0
CIRCLE
8
fr_3
10
59538
20
435630
30
0
40
449.739
39
0
0
CIRCLE
8
fr_3
10
59545
20
434273
30
0
40
449.739
39
0
0
CIRCLE
8
fr_3
10
59559
20
432915
30
0
40
449.739
39
0
0
TEXT
8
fr_3
62
0
10
59559
20
432915
30
0
40
1079.374
1
31115
50
0
0
CIRCLE
8
fr_3
10
59560
20
431559
30
0
40
449.739
39
0
0
CIRCLE
8
fr_3
10
59568
20
430200
30
0
40
449.739
39
0
0
CIRCLE
8
fr_3
10
59567
20
428843
30
0
40
449.739
39
0
0
CIRCLE
8
fr_3
10
59569
20
427483
30
0
40
449.739
39
0
0
CIRCLE
8
fr_3
10
59560
20
426127
30
0
40
449.739
39
0
0
TEXT
8
fr_3
62
0
10
59560
20
426127
30
0
40
1079.374
1
31120
50
0
0
CIRCLE
8
fr_3
10
63187
20
426128
30
0
40
449.739
39
0
0
TEXT
8
fr_3
62
0
10
63187
20
426128
30
0
40
1079.374
1
31121
50
0
0
CIRCLE
8
fr_3
10
63190
20
427487
30
0
40
449.739
39
0
0
CIRCLE
8
fr_3
10
63182
20
428843
30
0
40
449.739
39
0
0
CIRCLE
8
fr_3
10
63187
20
430201
30
0
40
449.739
39
0
0
CIRCLE
8
fr_3
10
63196
20
431558
30
0
40
449.739
39
0
0
TEXT
8
fr_3
62
0
10
63196
20
431558
30
0
40
1079.374
1
31125
50
0
0
CIRCLE
8
fr_3
10
63196
20
432916
30
0
40
449.739
39
0
0
CIRCLE
8
fr_3
10
63189
20
434273
30
0
40
449.739
39
0
0
CIRCLE
8
fr_3
10
63179
20
435631
30
0
40
449.739
39
0
0
CIRCLE
8
fr_3
10
63186
20
436989
30
0
40
449.739
39
0
0
CIRCLE
8
fr_3
10
63182
20
438346
30
0
40
449.739
39
0
0
TEXT
8
fr_3
62
0
10
63182
20
438346
30
0
40
1079.374
1
31130
50
0
0
CIRCLE
8
fr_3
10
63179
20
439703
30
0
40
449.739
39
0
0
CIRCLE
8
fr_3
10
63199
20
441063
30
0
40
449.739
39
0
0
CIRCLE
8
fr_3
10
63192
20
442419
30
0
40
449.739
39
0
0
CIRCLE
8
fr_3
10
63209
20
443777
30
0
40
449.739
39
0
0
CIRCLE
8
fr_3
10
63217
20
445135
30
0
40
449.739
39
0
0
TEXT
8
fr_3
62
0
10
63217
20
445135
30
0
40
1079.374
1
31135
50
0
0
CIRCLE
8
fr_3
10
63234
20
446491
30
0
40
449.739
39
0
0
CIRCLE
8
fr_3
10
63222
20
447849
30
0
40
449.739
39
0
0
TEXT
8
fr_3
62
0
10
63222
20
447849
30
0
40
1079.374
1
31137
50
0
0
LINE
8
PHOTO_TICKS_LAYER
10
49122.74
20
432914.2
30
0
11
48223.26
21
432913.8
31
0
0
LINE
8
PHOTO_TICKS_LAYER
10
49123.74
20
431557.2
30
0
11
48224.26
21
431556.8
31
0
0
LINE
8
PHOTO_TICKS_LAYER
10
49123.74
20
430199.2
30
0
11
48224.26
21
430198.8
31
0
0
LINE
8
PHOTO_TICKS_LAYER
10
49124.74
20
428842.2
30
0
11
48225.26
21
428841.8
31
0
0
LINE
8
PHOTO_TICKS_LAYER
10
49123.74
20
427484.2
30
0
11
48224.26
21
427483.8
31
0
0
LINE
8
PHOTO_TICKS_LAYER
10
49124.74
20
426126.2
30
0
11
48225.26
21
426125.8
31
0
0
LINE
8
PHOTO_TICKS_LAYER
10
49124.74
20
424768.2
30
0
11
48225.26
21
424767.8
31
0
0
LINE
8
PHOTO_TICKS_LAYER
10
49125.74
20
423411.2
30
0
11
48226.26
21
423410.8
31
0
0
LINE
8
PHOTO_TICKS_LAYER
10
52756.74
20
439703.1
30
0
11
51857.26
21
439702.9
31
0
0
LINE
8
PHOTO_TICKS_LAYER
10
52757.74
20
438346.1
30
0
11
51858.26
21
438345.9
31
0
0
LINE
8
PHOTO_TICKS_LAYER
10
52756.74
20
436988.1
30
0
11
51857.26
21
436987.9
31
0
0
LINE
8
PHOTO_TICKS_LAYER
10
52757.74
20
435631.1
30
0
11
51858.26
21
435630.9
31
0
0
LINE
8
PHOTO_TICKS_LAYER
10
52757.74
20
434272.1
30
0
11
51858.26
21
434271.9
31
0
0
LINE
8
PHOTO_TICKS_LAYER
10
52757.74
20
432915.1
30
0
11
51858.26
21
432914.9
31
0
0
LINE
8
PHOTO_TICKS_LAYER
10
52757.74
20
431557.1
30
0
11
51858.26
21
431556.9
31
0
0
LINE
8
PHOTO_TICKS_LAYER
10
52758.74
20
430200.1
30
0
11
51859.26
21
430199.9
31
0
0
LINE
8
PHOTO_TICKS_LAYER
10
52757.74
20
428842.1
30
0
11
51858.26
21
428841.9
31
0
0
LINE
8
PHOTO_TICKS_LAYER
10
52758.74
20
427484.1
30
0
11
51859.26
21
427483.9
31
0
0
LINE
8
PHOTO_TICKS_LAYER
10
52758.74
20
426126.1
30
0
11
51859.26
21
426125.9
31
0
0
LINE
8
PHOTO_TICKS_LAYER
10
52758.74
20
424769.1
30
0
11
51859.26
21
424768.9
31
0
0
LINE
8
PHOTO_TICKS_LAYER
10
52758.74
20
423411.1
30
0
11
51859.26
21
423410.9
31
0
0
LINE
8
PHOTO_TICKS_LAYER
10
56390.74
20
446491
30
0
11
55491.26
21
446491
31
0
0
LINE
8
PHOTO_TICKS_LAYER
10
56391.74
20
445134
30
0
11
55492.26
21
445134
31
0
0
LINE
8
PHOTO_TICKS_LAYER
10
56390.74
20
443775
30
0
11
55491.26
21
443775
31
0
0
LINE
8
PHOTO_TICKS_LAYER
10
56391.74
20
442418
30
0
11
55492.26
21
442418
31
0
0
LINE
8
PHOTO_TICKS_LAYER
10
56391.74
20
441060
30
0
11
55492.26
21
441060
31
0
0
LINE
8
PHOTO_TICKS_LAYER
10
56391.74
20
439703
30
0
11
55492.26
21
439703
31
0
0
LINE
8
PHOTO_TICKS_LAYER
10
56391.74
20
438345
30
0
11
55492.26
21
438345
31
0
0
LINE
8
PHOTO_TICKS_LAYER
10
56391.74
20
436988
30
0
11
55492.26
21
436988
31
0
0
LINE
8
PHOTO_TICKS_LAYER
10
56391.74
20
435629
30
0
11
55492.26
21
435629
31
0
0
LINE
8
PHOTO_TICKS_LAYER
10
56391.74
20
434272
30
0
11
55492.26
21
434272
31
0
0
LINE
8
PHOTO_TICKS_LAYER
10
56392.74
20
432914
30
0
11
55493.26
21
432914
31
0
0
LINE
8
PHOTO_TICKS_LAYER
10
56391.74
20
431557
30
0
11
55492.26
21
431557
31
0
0
LINE
8
PHOTO_TICKS_LAYER
10
56392.74
20
430199
30
0
11
55493.26
21
430199
31
0
0
LINE
8
PHOTO_TICKS_LAYER
10
56392.74
20
428841
30
0
11
55493.26
21
428841
31
0
0
LINE
8
PHOTO_TICKS_LAYER
10
56392.74
20
427483
30
0
11
55493.26
21
427483
31
0
0
LINE
8
PHOTO_TICKS_LAYER
10
56392.74
20
426126
30
0
11
55493.26
21
426126
31
0
0
LINE
8
PHOTO_TICKS_LAYER
10
60025.74
20
449207
30
0
11
59126.26
21
449207
31
0
0
LINE
8
PHOTO_TICKS_LAYER
10
60025.74
20
447850
30
0
11
59126.26
21
447850
31
0
0
LINE
8
PHOTO_TICKS_LAYER
10
60025.74
20
446491
30
0
11
59126.26
21
446491
31
0
0
LINE
8
PHOTO_TICKS_LAYER
10
60025.74
20
445134
30
0
11
59126.26
21
445134
31
0
0
LINE
8
PHOTO_TICKS_LAYER
10
60025.74
20
443776
30
0
11
59126.26
21
443776
31
0
0
LINE
8
PHOTO_TICKS_LAYER
10
60026.74
20
442419
30
0
11
59127.26
21
442419
31
0
0
LINE
8
PHOTO_TICKS_LAYER
10
60025.74
20
441061
30
0
11
59126.26
21
441061
31
0
0
LINE
8
PHOTO_TICKS_LAYER
10
60026.74
20
439704
30
0
11
59127.26
21
439704
31
0
0
LINE
8
PHOTO_TICKS_LAYER
10
60026.74
20
438345
30
0
11
59127.26
21
438345
31
0
0
LINE
8
PHOTO_TICKS_LAYER
10
60026.74
20
436988
30
0
11
59127.26
21
436988
31
0
0
LINE
8
PHOTO_TICKS_LAYER
10
60026.74
20
435630
30
0
11
59127.26
21
435630
31
0
0
LINE
8
PHOTO_TICKS_LAYER
10
60026.74
20
434273
30
0
11
59127.26
21
434273
31
0
0
LINE
8
PHOTO_TICKS_LAYER
10
60026.74
20
432915
30
0
11
59127.26
21
432915
31
0
0
LINE
8
PHOTO_TICKS_LAYER
10
60026.74
20
431558
30
0
11
59127.26
21
431558
31
0
0
LINE
8
PHOTO_TICKS_LAYER
10
60027.74
20
430199
30
0
11
59128.26
21
430199
31
0
0
LINE
8
PHOTO_TICKS_LAYER
10
60027.74
20
428842
30
0
11
59128.26
21
428842
31
0
0
LINE
8
PHOTO_TICKS_LAYER
10
60027.74
20
427484
30
0
11
59128.26
21
427484
31
0
0
LINE
8
PHOTO_TICKS_LAYER
10
60027.74
20
426127
30
0
11
59128.26
21
426127
31
0
0
LINE
8
PHOTO_TICKS_LAYER
10
63659.74
20
447849
30
0
11
62760.26
21
447849
31
0
0
LINE
8
PHOTO_TICKS_LAYER
10
63660.74
20
446492
30
0
11
62761.26
21
446492
31
0
0
LINE
8
PHOTO_TICKS_LAYER
10
63659.74
20
445134
30
0
11
62760.26
21
445134
31
0
0
LINE
8
PHOTO_TICKS_LAYER
10
63660.74
20
443777
30
0
11
62761.26
21
443777
31
0
0
LINE
8
PHOTO_TICKS_LAYER
10
63659.74
20
442419
30
0
11
62760.26
21
442419
31
0
0
LINE
8
PHOTO_TICKS_LAYER
10
63659.74
20
441061
30
0
11
62760.26
21
441061
31
0
0
LINE
8
PHOTO_TICKS_LAYER
10
63659.74
20
439703
30
0
11
62760.26
21
439703
31
0
0
LINE
8
PHOTO_TICKS_LAYER
10
63659.74
20
438346
30
0
11
62760.26
21
438346
31
0
0
LINE
8
PHOTO_TICKS_LAYER
10
63659.74
20
436988
30
0
11
62760.26
21
436988
31
0
0
LINE
8
PHOTO_TICKS_LAYER
10
63659.74
20
435631
30
0
11
62760.26
21
435631
31
0
0
LINE
8
PHOTO_TICKS_LAYER
10
63659.74
20
434273
30
0
11
62760.26
21
434273
31
0
0
LINE
8
PHOTO_TICKS_LAYER
10
63659.74
20
432916
30
0
11
62760.26
21
432916
31
0
0
LINE
8
PHOTO_TICKS_LAYER
10
63659.74
20
431557
30
0
11
62760.26
21
431557
31
0
0
LINE
8
PHOTO_TICKS_LAYER
10
63659.74
20
430200
30
0
11
62760.26
21
430200
31
0
0
LINE
8
PHOTO_TICKS_LAYER
10
63658.74
20
428842
30
0
11
62759.26
21
428842
31
0
0
LINE
8
PHOTO_TICKS_LAYER
10
63659.74
20
427485
30
0
11
62760.26
21
427485
31
0
0
LINE
8
PHOTO_TICKS_LAYER
10
63658.74
20
426127
30
0
11
62759.26
21
426127
31
0
0
POLYLINE
8
RUN_LAYER
62
1
40
0.000001
70
0
41
0.000001
66
1
0
VERTEX
8
RUN_LAYER
10
48673
20
432914
30
0
40
0.000001
41
0.000001
0
VERTEX
8
RUN_LAYER
10
48674
20
431557
30
0
40
0.000001
41
0.000001
0
VERTEX
8
RUN_LAYER
10
48674
20
430199
30
0
40
0.000001
41
0.000001
0
VERTEX
8
RUN_LAYER
10
48675
20
428842
30
0
40
0.000001
41
0.000001
0
VERTEX
8
RUN_LAYER
10
48674
20
427484
30
0
40
0.000001
41
0.000001
0
VERTEX
8
RUN_LAYER
10
48675
20
426126
30
0
40
0.000001
41
0.000001
0
VERTEX
8
RUN_LAYER
10
48675
20
424768
30
0
40
0.000001
41
0.000001
0
VERTEX
8
RUN_LAYER
10
48676
20
423411
30
0
40
0.000001
41
0.000001
0
SEQEND
0
POLYLINE
8
RUN_LAYER
62
1
40
0.000001
70
0
41
0.000001
66
1
0
VERTEX
8
RUN_LAYER
10
52307
20
439703
30
0
40
0.000001
41
0.000001
0
VERTEX
8
RUN_LAYER
10
52308
20
438346
30
0
40
0.000001
41
0.000001
0
VERTEX
8
RUN_LAYER
10
52307
20
436988
30
0
40
0.000001
41
0.000001
0
VERTEX
8
RUN_LAYER
10
52308
20
435631
30
0
40
0.000001
41
0.000001
0
VERTEX
8
RUN_LAYER
10
52308
20
434272
30
0
40
0.000001
41
0.000001
0
VERTEX
8
RUN_LAYER
10
52308
20
432915
30
0
40
0.000001
41
0.000001
0
VERTEX
8
RUN_LAYER
10
52308
20
431557
30
0
40
0.000001
41
0.000001
0
VERTEX
8
RUN_LAYER
10
52309
20
430200
30
0
40
0.000001
41
0.000001
0
VERTEX
8
RUN_LAYER
10
52308
20
428842
30
0
40
0.000001
41
0.000001
0
VERTEX
8
RUN_LAYER
10
52309
20
427484
30
0
40
0.000001
41
0.000001
0
VERTEX
8
RUN_LAYER
10
52309
20
426126
30
0
40
0.000001
41
0.000001
0
VERTEX
8
RUN_LAYER
10
52309
20
424769
30
0
40
0.000001
41
0.000001
0
VERTEX
8
RUN_LAYER
10
52309
20
423411
30
0
40
0.000001
41
0.000001
0
SEQEND
0
POLYLINE
8
RUN_LAYER
62
1
40
0.000001
70
0
41
0.000001
66
1
0
VERTEX
8
RUN_LAYER
10
55941
20
446491
30
0
40
0.000001
41
0.000001
0
VERTEX
8
RUN_LAYER
10
55942
20
445134
30
0
40
0.000001
41
0.000001
0
VERTEX
8
RUN_LAYER
10
55941
20
443775
30
0
40
0.000001
41
0.000001
0
VERTEX
8
RUN_LAYER
10
55942
20
442418
30
0
40
0.000001
41
0.000001
0
VERTEX
8
RUN_LAYER
10
55942
20
441060
30
0
40
0.000001
41
0.000001
0
VERTEX
8
RUN_LAYER
10
55942
20
439703
30
0
40
0.000001
41
0.000001
0
VERTEX
8
RUN_LAYER
10
55942
20
438345
30
0
40
0.000001
41
0.000001
0
VERTEX
8
RUN_LAYER
10
55942
20
436988
30
0
40
0.000001
41
0.000001
0
VERTEX
8
RUN_LAYER
10
55942
20
435629
30
0
40
0.000001
41
0.000001
0
VERTEX
8
RUN_LAYER
10
55942
20
434272
30
0
40
0.000001
41
0.000001
0
VERTEX
8
RUN_LAYER
10
55943
20
432914
30
0
40
0.000001
41
0.000001
0
VERTEX
8
RUN_LAYER
10
55942
20
431557
30
0
40
0.000001
41
0.000001
0
VERTEX
8
RUN_LAYER
10
55943
20
430199
30
0
40
0.000001
41
0.000001
0
VERTEX
8
RUN_LAYER
10
55943
20
428841
30
0
40
0.000001
41
0.000001
0
VERTEX
8
RUN_LAYER
10
55943
20
427483
30
0
40
0.000001
41
0.000001
0
VERTEX
8
RUN_LAYER
10
55943
20
426126
30
0
40
0.000001
41
0.000001
0
SEQEND
0
POLYLINE
8
RUN_LAYER
62
1
40
0.000001
70
0
41
0.000001
66
1
0
VERTEX
8
RUN_LAYER
10
59576
20
449207
30
0
40
0.000001
41
0.000001
0
VERTEX
8
RUN_LAYER
10
59576
20
447850
30
0
40
0.000001
41
0.000001
0
VERTEX
8
RUN_LAYER
10
59576
20
446491
30
0
40
0.000001
41
0.000001
0
VERTEX
8
RUN_LAYER
10
59576
20
445134
30
0
40
0.000001
41
0.000001
0
VERTEX
8
RUN_LAYER
10
59576
20
443776
30
0
40
0.000001
41
0.000001
0
VERTEX
8
RUN_LAYER
10
59577
20
442419
30
0
40
0.000001
41
0.000001
0
VERTEX
8
RUN_LAYER
10
59576
20
441061
30
0
40
0.000001
41
0.000001
0
VERTEX
8
RUN_LAYER
10
59577
20
439704
30
0
40
0.000001
41
0.000001
0
VERTEX
8
RUN_LAYER
10
59577
20
438345
30
0
40
0.000001
41
0.000001
0
VERTEX
8
RUN_LAYER
10
59577
20
436988
30
0
40
0.000001
41
0.000001
0
VERTEX
8
RUN_LAYER
10
59577
20
435630
30
0
40
0.000001
41
0.000001
0
VERTEX
8
RUN_LAYER
10
59577
20
434273
30
0
40
0.000001
41
0.000001
0
VERTEX
8
RUN_LAYER
10
59577
20
432915
30
0
40
0.000001
41
0.000001
0
VERTEX
8
RUN_LAYER
10
59577
20
431558
30
0
40
0.000001
41
0.000001
0
VERTEX
8
RUN_LAYER
10
59578
20
430199
30
0
40
0.000001
41
0.000001
0
VERTEX
8
RUN_LAYER
10
59578
20
428842
30
0
40
0.000001
41
0.000001
0
VERTEX
8
RUN_LAYER
10
59578
20
427484
30
0
40
0.000001
41
0.000001
0
VERTEX
8
RUN_LAYER
10
59578
20
426127
30
0
40
0.000001
41
0.000001
0
SEQEND
0
POLYLINE
8
RUN_LAYER
62
1
40
0.000001
70
0
41
0.000001
66
1
0
VERTEX
8
RUN_LAYER
10
63210
20
447849
30
0
40
0.000001
41
0.000001
0
VERTEX
8
RUN_LAYER
10
63211
20
446492
30
0
40
0.000001
41
0.000001
0
VERTEX
8
RUN_LAYER
10
63210
20
445134
30
0
40
0.000001
41
0.000001
0
VERTEX
8
RUN_LAYER
10
63211
20
443777
30
0
40
0.000001
41
0.000001
0
VERTEX
8
RUN_LAYER
10
63210
20
442419
30
0
40
0.000001
41
0.000001
0
VERTEX
8
RUN_LAYER
10
63210
20
441061
30
0
40
0.000001
41
0.000001
0
VERTEX
8
RUN_LAYER
10
63210
20
439703
30
0
40
0.000001
41
0.000001
0
VERTEX
8
RUN_LAYER
10
63210
20
438346
30
0
40
0.000001
41
0.000001
0
VERTEX
8
RUN_LAYER
10
63210
20
436988
30
0
40
0.000001
41
0.000001
0
VERTEX
8
RUN_LAYER
10
63210
20
435631
30
0
40
0.000001
41
0.000001
0
VERTEX
8
RUN_LAYER
10
63210
20
434273
30
0
40
0.000001
41
0.000001
0
VERTEX
8
RUN_LAYER
10
63210
20
432916
30
0
40
0.000001
41
0.000001
0
VERTEX
8
RUN_LAYER
10
63210
20
431557
30
0
40
0.000001
41
0.000001
0
VERTEX
8
RUN_LAYER
10
63210
20
430200
30
0
40
0.000001
41
0.000001
0
VERTEX
8
RUN_LAYER
10
63209
20
428842
30
0
40
0.000001
41
0.000001
0
VERTEX
8
RUN_LAYER
10
63210
20
427485
30
0
40
0.000001
41
0.000001
0
VERTEX
8
RUN_LAYER
10
63209
20
426127
30
0
40
0.000001
41
0.000001
0
SEQEND
0
POLYLINE
8
fr_3_frame
40
0.000001
70
1
41
0.000001
66
1
0
VERTEX
8
fr_3_frame
10
46051
20
425106
30
0
40
0.000001
41
0.000001
0
VERTEX
8
fr_3_frame
10
51244
20
425108
30
0
40
0.000001
41
0.000001
0
VERTEX
8
fr_3_frame
10
51244
20
421713
30
0
40
0.000001
41
0.000001
0
VERTEX
8
fr_3_frame
10
46052
20
421711
30
0
40
0.000001
41
0.000001
0
VERTEX
8
fr_3_frame
10
46051
20
425106
30
0
40
0.000001
41
0.000001
0
SEQEND
0
POLYLINE
8
fr_3_frame
40
0.000001
70
1
41
0.000001
66
1
0
VERTEX
8
fr_3_frame
10
46087
20
426518
30
0
40
0.000001
41
0.000001
0
VERTEX
8
fr_3_frame
10
51278
20
426411
30
0
40
0.000001
41
0.000001
0
VERTEX
8
fr_3_frame
10
51209
20
423019
30
0
40
0.000001
41
0.000001
0
VERTEX
8
fr_3_frame
10
46018
20
423125
30
0
40
0.000001
41
0.000001
0
VERTEX
8
fr_3_frame
10
46087
20
426518
30
0
40
0.000001
41
0.000001
0
SEQEND
0
POLYLINE
8
fr_3_frame
40
0.000001
70
1
41
0.000001
66
1
0
VERTEX
8
fr_3_frame
10
46073
20
427854
30
0
40
0.000001
41
0.000001
0
VERTEX
8
fr_3_frame
10
51264
20
427792
30
0
40
0.000001
41
0.000001
0
VERTEX
8
fr_3_frame
10
51224
20
424398
30
0
40
0.000001
41
0.000001
0
VERTEX
8
fr_3_frame
10
46034
20
424460
30
0
40
0.000001
41
0.000001
0
VERTEX
8
fr_3_frame
10
46073
20
427854
30
0
40
0.000001
41
0.000001
0
SEQEND
0
POLYLINE
8
fr_3_frame
40
0.000001
70
1
41
0.000001
66
1
0
VERTEX
8
fr_3_frame
10
46063
20
429221
30
0
40
0.000001
41
0.000001
0
VERTEX
8
fr_3_frame
10
51255
20
429140
30
0
40
0.000001
41
0.000001
0
VERTEX
8
fr_3_frame
10
51204
20
425747
30
0
40
0.000001
41
0.000001
0
VERTEX
8
fr_3_frame
10
46012
20
425827
30
0
40
0.000001
41
0.000001
0
VERTEX
8
fr_3_frame
10
46063
20
429221
30
0
40
0.000001
41
0.000001
0
SEQEND
0
POLYLINE
8
fr_3_frame
40
0.000001
70
1
41
0.000001
66
1
0
VERTEX
8
fr_3_frame
10
46065
20
430561
30
0
40
0.000001
41
0.000001
0
VERTEX
8
fr_3_frame
10
51256
20
430517
30
0
40
0.000001
41
0.000001
0
VERTEX
8
fr_3_frame
10
51227
20
427123
30
0
40
0.000001
41
0.000001
0
VERTEX
8
fr_3_frame
10
46036
20
427167
30
0
40
0.000001
41
0.000001
0
VERTEX
8
fr_3_frame
10
46065
20
430561
30
0
40
0.000001
41
0.000001
0
SEQEND
0
POLYLINE
8
fr_3_frame
40
0.000001
70
1
41
0.000001
66
1
0
VERTEX
8
fr_3_frame
10
46094
20
431945
30
0
40
0.000001
41
0.000001
0
VERTEX
8
fr_3_frame
10
51286
20
431847
30
0
40
0.000001
41
0.000001
0
VERTEX
8
fr_3_frame
10
51222
20
428454
30
0
40
0.000001
41
0.000001
0
VERTEX
8
fr_3_frame
10
46031
20
428552
30
0
40
0.000001
41
0.000001
0
VERTEX
8
fr_3_frame
10
46094
20
431945
30
0
40
0.000001
41
0.000001
0
SEQEND
0
POLYLINE
8
fr_3_frame
40
0.000001
70
1
41
0.000001
66
1
0
VERTEX
8
fr_3_frame
10
46125
20
433324
30
0
40
0.000001
41
0.000001
0
VERTEX
8
fr_3_frame
10
51315
20
433182
30
0
40
0.000001
41
0.000001
0
VERTEX
8
fr_3_frame
10
51221
20
429790
30
0
40
0.000001
41
0.000001
0
VERTEX
8
fr_3_frame
10
46031
20
429932
30
0
40
0.000001
41
0.000001
0
VERTEX
8
fr_3_frame
10
46125
20
433324
30
0
40
0.000001
41
0.000001
0
SEQEND
0
POLYLINE
8
fr_3_frame
40
0.000001
70
1
41
0.000001
66
1
0
VERTEX
8
fr_3_frame
10
46092
20
434625
30
0
40
0.000001
41
0.000001
0
VERTEX
8
fr_3_frame
10
51284
20
434598
30
0
40
0.000001
41
0.000001
0
VERTEX
8
fr_3_frame
10
51267
20
431204
30
0
40
0.000001
41
0.000001
0
VERTEX
8
fr_3_frame
10
46075
20
431230
30
0
40
0.000001
41
0.000001
0
VERTEX
8
fr_3_frame
10
46092
20
434625
30
0
40
0.000001
41
0.000001
0
SEQEND
0
POLYLINE
8
fr_3_frame
40
0.000001
70
1
41
0.000001
66
1
0
VERTEX
8
fr_3_frame
10
54888
20
437962
30
0
40
0.000001
41
0.000001
0
VERTEX
8
fr_3_frame
10
49697
20
438050
30
0
40
0.000001
41
0.000001
0
VERTEX
8
fr_3_frame
10
49754
20
441444
30
0
40
0.000001
41
0.000001
0
VERTEX
8
fr_3_frame
10
54946
20
441355
30
0
40
0.000001
41
0.000001
0
VERTEX
8
fr_3_frame
10
54888
20
437962
30
0
40
0.000001
41
0.000001
0
SEQEND
0
POLYLINE
8
fr_3_frame
40
0.000001
70
1
41
0.000001
66
1
0
VERTEX
8
fr_3_frame
10
54876
20
436591
30
0
40
0.000001
41
0.000001
0
VERTEX
8
fr_3_frame
10
49686
20
436708
30
0
40
0.000001
41
0.000001
0
VERTEX
8
fr_3_frame
10
49761
20
440100
30
0
40
0.000001
41
0.000001
0
VERTEX
8
fr_3_frame
10
54952
20
439984
30
0
40
0.000001
41
0.000001
0
VERTEX
8
fr_3_frame
10
54876
20
436591
30
0
40
0.000001
41
0.000001
0
SEQEND
0
POLYLINE
8
fr_3_frame
40
0.000001
70
1
41
0.000001
66
1
0
VERTEX
8
fr_3_frame
10
54884
20
435264
30
0
40
0.000001
41
0.000001
0
VERTEX
8
fr_3_frame
10
49693
20
435316
30
0
40
0.000001
41
0.000001
0
VERTEX
8
fr_3_frame
10
49729
20
438710
30
0
40
0.000001
41
0.000001
0
VERTEX
8
fr_3_frame
10
54919
20
438658
30
0
40
0.000001
41
0.000001
0
VERTEX
8
fr_3_frame
10
54884
20
435264
30
0
40
0.000001
41
0.000001
0
SEQEND
0
POLYLINE
8
fr_3_frame
40
0.000001
70
1
41
0.000001
66
1
0
VERTEX
8
fr_3_frame
10
54897
20
433930
30
0
40
0.000001
41
0.000001
0
VERTEX
8
fr_3_frame
10
49705
20
433937
30
0
40
0.000001
41
0.000001
0
VERTEX
8
fr_3_frame
10
49710
20
437331
30
0
40
0.000001
41
0.000001
0
VERTEX
8
fr_3_frame
10
54903
20
437325
30
0
40
0.000001
41
0.000001
0
VERTEX
8
fr_3_frame
10
54897
20
433930
30
0
40
0.000001
41
0.000001
0
SEQEND
0
POLYLINE
8
fr_3_frame
40
0.000001
70
1
41
0.000001
66
1
0
VERTEX
8
fr_3_frame
10
54885
20
432540
30
0
40
0.000001
41
0.000001
0
VERTEX
8
fr_3_frame
10
49692
20
432611
30
0
40
0.000001
41
0.000001
0
VERTEX
8
fr_3_frame
10
49738
20
436004
30
0
40
0.000001
41
0.000001
0
VERTEX
8
fr_3_frame
10
54930
20
435934
30
0
40
0.000001
41
0.000001
0
VERTEX
8
fr_3_frame
10
54885
20
432540
30
0
40
0.000001
41
0.000001
0
SEQEND
0
POLYLINE
8
fr_3_frame
40
0.000001
70
1
41
0.000001
66
1
0
VERTEX
8
fr_3_frame
10
54875
20
431168
30
0
40
0.000001
41
0.000001
0
VERTEX
8
fr_3_frame
10
49683
20
431267
30
0
40
0.000001
41
0.000001
0
VERTEX
8
fr_3_frame
10
49747
20
434660
30
0
40
0.000001
41
0.000001
0
VERTEX
8
fr_3_frame
10
54938
20
434561
30
0
40
0.000001
41
0.000001
0
VERTEX
8
fr_3_frame
10
54875
20
431168
30
0
40
0.000001
41
0.000001
0
SEQEND
0
POLYLINE
8
fr_3_frame
40
0.000001
70
1
41
0.000001
66
1
0
VERTEX
8
fr_3_frame
10
54878
20
429828
30
0
40
0.000001
41
0.000001
0
VERTEX
8
fr_3_frame
10
49687
20
429891
30
0
40
0.000001
41
0.000001
0
VERTEX
8
fr_3_frame
10
49726
20
433284
30
0
40
0.000001
41
0.000001
0
VERTEX
8
fr_3_frame
10
54917
20
433222
30
0
40
0.000001
41
0.000001
0
VERTEX
8
fr_3_frame
10
54878
20
429828
30
0
40
0.000001
41
0.000001
0
SEQEND
0
POLYLINE
8
fr_3_frame
40
0.000001
70
1
41
0.000001
66
1
0
VERTEX
8
fr_3_frame
10
54850
20
428442
30
0
40
0.000001
41
0.000001
0
VERTEX
8
fr_3_frame
10
49660
20
428566
30
0
40
0.000001
41
0.000001
0
VERTEX
8
fr_3_frame
10
49741
20
431959
30
0
40
0.000001
41
0.000001
0
VERTEX
8
fr_3_frame
10
54931
20
431834
30
0
40
0.000001
41
0.000001
0
VERTEX
8
fr_3_frame
10
54850
20
428442
30
0
40
0.000001
41
0.000001
0
SEQEND
0
POLYLINE
8
fr_3_frame
40
0.000001
70
1
41
0.000001
66
1
0
VERTEX
8
fr_3_frame
10
54863
20
427104
30
0
40
0.000001
41
0.000001
0
VERTEX
8
fr_3_frame
10
49671
20
427185
30
0
40
0.000001
41
0.000001
0
VERTEX
8
fr_3_frame
10
49723
20
430578
30
0
40
0.000001
41
0.000001
0
VERTEX
8
fr_3_frame
10
54915
20
430498
30
0
40
0.000001
41
0.000001
0
VERTEX
8
fr_3_frame
10
54863
20
427104
30
0
40
0.000001
41
0.000001
0
SEQEND
0
POLYLINE
8
fr_3_frame
40
0.000001
70
1
41
0.000001
66
1
0
VERTEX
8
fr_3_frame
10
54883
20
425780
30
0
40
0.000001
41
0.000001
0
VERTEX
8
fr_3_frame
10
49691
20
425796
30
0
40
0.000001
41
0.000001
0
VERTEX
8
fr_3_frame
10
49702
20
429190
30
0
40
0.000001
41
0.000001
0
VERTEX
8
fr_3_frame
10
54894
20
429174
30
0
40
0.000001
41
0.000001
0
VERTEX
8
fr_3_frame
10
54883
20
425780
30
0
40
0.000001
41
0.000001
0
SEQEND
0
POLYLINE
8
fr_3_frame
40
0.000001
70
1
41
0.000001
66
1
0
VERTEX
8
fr_3_frame
10
54869
20
424395
30
0
40
0.000001
41
0.000001
0
VERTEX
8
fr_3_frame
10
49677
20
424465
30
0
40
0.000001
41
0.000001
0
VERTEX
8
fr_3_frame
10
49723
20
427859
30
0
40
0.000001
41
0.000001
0
VERTEX
8
fr_3_frame
10
54915
20
427788
30
0
40
0.000001
41
0.000001
0
VERTEX
8
fr_3_frame
10
54869
20
424395
30
0
40
0.000001
41
0.000001
0
SEQEND
0
POLYLINE
8
fr_3_frame
40
0.000001
70
1
41
0.000001
66
1
0
VERTEX
8
fr_3_frame
10
53302
20
427846
30
0
40
0.000001
41
0.000001
0
VERTEX
8
fr_3_frame
10
58493
20
427802
30
0
40
0.000001
41
0.000001
0
VERTEX
8
fr_3_frame
10
58464
20
424408
30
0
40
0.000001
41
0.000001
0
VERTEX
8
fr_3_frame
10
53273
20
424452
30
0
40
0.000001
41
0.000001
0
VERTEX
8
fr_3_frame
10
53302
20
427846
30
0
40
0.000001
41
0.000001
0
SEQEND
0
POLYLINE
8
fr_3_frame
40
0.000001
70
1
41
0.000001
66
1
0
VERTEX
8
fr_3_frame
10
53373
20
429282
30
0
40
0.000001
41
0.000001
0
VERTEX
8
fr_3_frame
10
58561
20
429076
30
0
40
0.000001
41
0.000001
0
VERTEX
8
fr_3_frame
10
58426
20
425685
30
0
40
0.000001
41
0.000001
0
VERTEX
8
fr_3_frame
10
53238
20
425892
30
0
40
0.000001
41
0.000001
0
VERTEX
8
fr_3_frame
10
53373
20
429282
30
0
40
0.000001
41
0.000001
0
SEQEND
0
POLYLINE
8
fr_3_frame
40
0.000001
70
1
41
0.000001
66
1
0
VERTEX
8
fr_3_frame
10
53378
20
430600
30
0
40
0.000001
41
0.000001
0
VERTEX
8
fr_3_frame
10
58568
20
430476
30
0
40
0.000001
41
0.000001
0
VERTEX
8
fr_3_frame
10
58487
20
427084
30
0
40
0.000001
41
0.000001
0
VERTEX
8
fr_3_frame
10
53296
20
427208
30
0
40
0.000001
41
0.000001
0
VERTEX
8
fr_3_frame
10
53378
20
430600
30
0
40
0.000001
41
0.000001
0
SEQEND
0
POLYLINE
8
fr_3_frame
40
0.000001
70
1
41
0.000001
66
1
0
VERTEX
8
fr_3_frame
10
53359
20
431922
30
0
40
0.000001
41
0.000001
0
VERTEX
8
fr_3_frame
10
58550
20
431870
30
0
40
0.000001
41
0.000001
0
VERTEX
8
fr_3_frame
10
58514
20
428476
30
0
40
0.000001
41
0.000001
0
VERTEX
8
fr_3_frame
10
53324
20
428528
30
0
40
0.000001
41
0.000001
0
VERTEX
8
fr_3_frame
10
53359
20
431922
30
0
40
0.000001
41
0.000001
0
SEQEND
0
POLYLINE
8
fr_3_frame
40
0.000001
70
1
41
0.000001
66
1
0
VERTEX
8
fr_3_frame
10
53356
20
433281
30
0
40
0.000001
41
0.000001
0
VERTEX
8
fr_3_frame
10
58546
20
433229
30
0
40
0.000001
41
0.000001
0
VERTEX
8
fr_3_frame
10
58511
20
429835
30
0
40
0.000001
41
0.000001
0
VERTEX
8
fr_3_frame
10
53320
20
429887
30
0
40
0.000001
41
0.000001
0
VERTEX
8
fr_3_frame
10
53356
20
433281
30
0
40
0.000001
41
0.000001
0
SEQEND
0
POLYLINE
8
fr_3_frame
40
0.000001
70
1
41
0.000001
66
1
0
VERTEX
8
fr_3_frame
10
53333
20
434620
30
0
40
0.000001
41
0.000001
0
VERTEX
8
fr_3_frame
10
58525
20
434604
30
0
40
0.000001
41
0.000001
0
VERTEX
8
fr_3_frame
10
58514
20
431209
30
0
40
0.000001
41
0.000001
0
VERTEX
8
fr_3_frame
10
53322
20
431225
30
0
40
0.000001
41
0.000001
0
VERTEX
8
fr_3_frame
10
53333
20
434620
30
0
40
0.000001
41
0.000001
0
SEQEND
0
POLYLINE
8
fr_3_frame
40
0.000001
70
1
41
0.000001
66
1
0
VERTEX
8
fr_3_frame
10
53318
20
435987
30
0
40
0.000001
41
0.000001
0
VERTEX
8
fr_3_frame
10
58510
20
435952
30
0
40
0.000001
41
0.000001
0
VERTEX
8
fr_3_frame
10
58486
20
432558
30
0
40
0.000001
41
0.000001
0
VERTEX
8
fr_3_frame
10
53295
20
432593
30
0
40
0.000001
41
0.000001
0
VERTEX
8
fr_3_frame
10
53318
20
435987
30
0
40
0.000001
41
0.000001
0
SEQEND
0
POLYLINE
8
fr_3_frame
40
0.000001
70
1
41
0.000001
66
1
0
VERTEX
8
fr_3_frame
10
53325
20
437367
30
0
40
0.000001
41
0.000001
0
VERTEX
8
fr_3_frame
10
58516
20
437286
30
0
40
0.000001
41
0.000001
0
VERTEX
8
fr_3_frame
10
58465
20
433893
30
0
40
0.000001
41
0.000001
0
VERTEX
8
fr_3_frame
10
53273
20
433973
30
0
40
0.000001
41
0.000001
0
VERTEX
8
fr_3_frame
10
53325
20
437367
30
0
40
0.000001
41
0.000001
0
SEQEND
0
POLYLINE
8
fr_3_frame
40
0.000001
70
1
41
0.000001
66
1
0
VERTEX
8
fr_3_frame
10
53344
20
438729
30
0
40
0.000001
41
0.000001
0
VERTEX
8
fr_3_frame
10
58536
20
438641
30
0
40
0.000001
41
0.000001
0
VERTEX
8
fr_3_frame
10
58479
20
435248
30
0
40
0.000001
41
0.000001
0
VERTEX
8
fr_3_frame
10
53287
20
435336
30
0
40
0.000001
41
0.000001
0
VERTEX
8
fr_3_frame
10
53344
20
438729
30
0
40
0.000001
41
0.000001
0
SEQEND
0
POLYLINE
8
fr_3_frame
40
0.000001
70
1
41
0.000001
66
1
0
VERTEX
8
fr_3_frame
10
53327
20
440064
30
0
40
0.000001
41
0.000001
0
VERTEX
8
fr_3_frame
10
58518
20
440020
30
0
40
0.000001
41
0.000001
0
VERTEX
8
fr_3_frame
10
58489
20
436626
30
0
40
0.000001
41
0.000001
0
VERTEX
8
fr_3_frame
10
53298
20
436670
30
0
40
0.000001
41
0.000001
0
VERTEX
8
fr_3_frame
10
53327
20
440064
30
0
40
0.000001
41
0.000001
0
SEQEND
0
POLYLINE
8
fr_3_frame
40
0.000001
70
1
41
0.000001
66
1
0
VERTEX
8
fr_3_frame
10
53383
20
441479
30
0
40
0.000001
41
0.000001
0
VERTEX
8
fr_3_frame
10
58572
20
441319
30
0
40
0.000001
41
0.000001
0
VERTEX
8
fr_3_frame
10
58466
20
437927
30
0
40
0.000001
41
0.000001
0
VERTEX
8
fr_3_frame
10
53277
20
438088
30
0
40
0.000001
41
0.000001
0
VERTEX
8
fr_3_frame
10
53383
20
441479
30
0
40
0.000001
41
0.000001
0
SEQEND
0
POLYLINE
8
fr_3_frame
40
0.000001
70
1
41
0.000001
66
1
0
VERTEX
8
fr_3_frame
10
53373
20
442806
30
0
40
0.000001
41
0.000001
0
VERTEX
8
fr_3_frame
10
58564
20
442707
30
0
40
0.000001
41
0.000001
0
VERTEX
8
fr_3_frame
10
58501
20
439315
30
0
40
0.000001
41
0.000001
0
VERTEX
8
fr_3_frame
10
53310
20
439413
30
0
40
0.000001
41
0.000001
0
VERTEX
8
fr_3_frame
10
53373
20
442806
30
0
40
0.000001
41
0.000001
0
SEQEND
0
POLYLINE
8
fr_3_frame
40
0.000001
70
1
41
0.000001
66
1
0
VERTEX
8
fr_3_frame
10
53387
20
444168
30
0
40
0.000001
41
0.000001
0
VERTEX
8
fr_3_frame
10
58578
20
444061
30
0
40
0.000001
41
0.000001
0
VERTEX
8
fr_3_frame
10
58508
20
440668
30
0
40
0.000001
41
0.000001
0
VERTEX
8
fr_3_frame
10
53317
20
440775
30
0
40
0.000001
41
0.000001
0
VERTEX
8
fr_3_frame
10
53387
20
444168
30
0
40
0.000001
41
0.000001
0
SEQEND
0
POLYLINE
8
fr_3_frame
40
0.000001
70
1
41
0.000001
66
1
0
VERTEX
8
fr_3_frame
10
53379
20
445498
30
0
40
0.000001
41
0.000001
0
VERTEX
8
fr_3_frame
10
58569
20
445446
30
0
40
0.000001
41
0.000001
0
VERTEX
8
fr_3_frame
10
58534
20
442052
30
0
40
0.000001
41
0.000001
0
VERTEX
8
fr_3_frame
10
53343
20
442104
30
0
40
0.000001
41
0.000001
0
VERTEX
8
fr_3_frame
10
53379
20
445498
30
0
40
0.000001
41
0.000001
0
SEQEND
0
POLYLINE
8
fr_3_frame
40
0.000001
70
1
41
0.000001
66
1
0
VERTEX
8
fr_3_frame
10
53385
20
446871
30
0
40
0.000001
41
0.000001
0
VERTEX
8
fr_3_frame
10
58577
20
446790
30
0
40
0.000001
41
0.000001
0
VERTEX
8
fr_3_frame
10
58525
20
443397
30
0
40
0.000001
41
0.000001
0
VERTEX
8
fr_3_frame
10
53333
20
443478
30
0
40
0.000001
41
0.000001
0
VERTEX
8
fr_3_frame
10
53385
20
446871
30
0
40
0.000001
41
0.000001
0
SEQEND
0
POLYLINE
8
fr_3_frame
40
0.000001
70
1
41
0.000001
66
1
0
VERTEX
8
fr_3_frame
10
53456
20
448298
30
0
40
0.000001
41
0.000001
0
VERTEX
8
fr_3_frame
10
58643
20
448073
30
0
40
0.000001
41
0.000001
0
VERTEX
8
fr_3_frame
10
58495
20
444683
30
0
40
0.000001
41
0.000001
0
VERTEX
8
fr_3_frame
10
53308
20
444908
30
0
40
0.000001
41
0.000001
0
VERTEX
8
fr_3_frame
10
53456
20
448298
30
0
40
0.000001
41
0.000001
0
SEQEND
0
POLYLINE
8
fr_3_frame
40
0.000001
70
1
41
0.000001
66
1
0
VERTEX
8
fr_3_frame
10
62114
20
447470
30
0
40
0.000001
41
0.000001
0
VERTEX
8
fr_3_frame
10
56922
20
447550
30
0
40
0.000001
41
0.000001
0
VERTEX
8
fr_3_frame
10
56974
20
450944
30
0
40
0.000001
41
0.000001
0
VERTEX
8
fr_3_frame
10
62165
20
450863
30
0
40
0.000001
41
0.000001
0
VERTEX
8
fr_3_frame
10
62114
20
447470
30
0
40
0.000001
41
0.000001
0
SEQEND
0
POLYLINE
8
fr_3_frame
40
0.000001
70
1
41
0.000001
66
1
0
VERTEX
8
fr_3_frame
10
62114
20
446118
30
0
40
0.000001
41
0.000001
0
VERTEX
8
fr_3_frame
10
56922
20
446188
30
0
40
0.000001
41
0.000001
0
VERTEX
8
fr_3_frame
10
56968
20
449582
30
0
40
0.000001
41
0.000001
0
VERTEX
8
fr_3_frame
10
62160
20
449511
30
0
40
0.000001
41
0.000001
0
VERTEX
8
fr_3_frame
10
62114
20
446118
30
0
40
0.000001
41
0.000001
0
SEQEND
0
POLYLINE
8
fr_3_frame
40
0.000001
70
1
41
0.000001
66
1
0
VERTEX
8
fr_3_frame
10
62110
20
444751
30
0
40
0.000001
41
0.000001
0
VERTEX
8
fr_3_frame
10
56918
20
444839
30
0
40
0.000001
41
0.000001
0
VERTEX
8
fr_3_frame
10
56976
20
448232
30
0
40
0.000001
41
0.000001
0
VERTEX
8
fr_3_frame
10
62167
20
448144
30
0
40
0.000001
41
0.000001
0
VERTEX
8
fr_3_frame
10
62110
20
444751
30
0
40
0.000001
41
0.000001
0
SEQEND
0
POLYLINE
8
fr_3_frame
40
0.000001
70
1
41
0.000001
66
1
0
VERTEX
8
fr_3_frame
10
62108
20
443398
30
0
40
0.000001
41
0.000001
0
VERTEX
8
fr_3_frame
10
56916
20
443478
30
0
40
0.000001
41
0.000001
0
VERTEX
8
fr_3_frame
10
56968
20
446871
30
0
40
0.000001
41
0.000001
0
VERTEX
8
fr_3_frame
10
62160
20
446791
30
0
40
0.000001
41
0.000001
0
VERTEX
8
fr_3_frame
10
62108
20
443398
30
0
40
0.000001
41
0.000001
0
SEQEND
0
POLYLINE
8
fr_3_frame
40
0.000001
70
1
41
0.000001
66
1
0
VERTEX
8
fr_3_frame
10
62112
20
442039
30
0
40
0.000001
41
0.000001
0
VERTEX
8
fr_3_frame
10
56920
20
442120
30
0
40
0.000001
41
0.000001
0
VERTEX
8
fr_3_frame
10
56971
20
445513
30
0
40
0.000001
41
0.000001
0
VERTEX
8
fr_3_frame
10
62163
20
445433
30
0
40
0.000001
41
0.000001
0
VERTEX
8
fr_3_frame
10
62112
20
442039
30
0
40
0.000001
41
0.000001
0
SEQEND
0
POLYLINE
8
fr_3_frame
40
0.000001
70
1
41
0.000001
66
1
0
VERTEX
8
fr_3_frame
10
62106
20
440678
30
0
40
0.000001
41
0.000001
0
VERTEX
8
fr_3_frame
10
56914
20
440767
30
0
40
0.000001
41
0.000001
0
VERTEX
8
fr_3_frame
10
56972
20
444160
30
0
40
0.000001
41
0.000001
0
VERTEX
8
fr_3_frame
10
62163
20
444071
30
0
40
0.000001
41
0.000001
0
VERTEX
8
fr_3_frame
10
62106
20
440678
30
0
40
0.000001
41
0.000001
0
SEQEND
0
POLYLINE
8
fr_3_frame
40
0.000001
70
1
41
0.000001
66
1
0
VERTEX
8
fr_3_frame
10
62122
20
439337
30
0
40
0.000001
41
0.000001
0
VERTEX
8
fr_3_frame
10
56931
20
439389
30
0
40
0.000001
41
0.000001
0
VERTEX
8
fr_3_frame
10
56967
20
442783
30
0
40
0.000001
41
0.000001
0
VERTEX
8
fr_3_frame
10
62157
20
442730
30
0
40
0.000001
41
0.000001
0
VERTEX
8
fr_3_frame
10
62122
20
439337
30
0
40
0.000001
41
0.000001
0
SEQEND
0
POLYLINE
8
fr_3_frame
40
0.000001
70
1
41
0.000001
66
1
0
VERTEX
8
fr_3_frame
10
62128
20
437984
30
0
40
0.000001
41
0.000001
0
VERTEX
8
fr_3_frame
10
56937
20
438029
30
0
40
0.000001
41
0.000001
0
VERTEX
8
fr_3_frame
10
56967
20
441423
30
0
40
0.000001
41
0.000001
0
VERTEX
8
fr_3_frame
10
62158
20
441378
30
0
40
0.000001
41
0.000001
0
VERTEX
8
fr_3_frame
10
62128
20
437984
30
0
40
0.000001
41
0.000001
0
SEQEND
0
POLYLINE
8
fr_3_frame
40
0.000001
70
1
41
0.000001
66
1
0
VERTEX
8
fr_3_frame
10
62117
20
436609
30
0
40
0.000001
41
0.000001
0
VERTEX
8
fr_3_frame
10
56925
20
436689
30
0
40
0.000001
41
0.000001
0
VERTEX
8
fr_3_frame
10
56977
20
440082
30
0
40
0.000001
41
0.000001
0
VERTEX
8
fr_3_frame
10
62169
20
440002
30
0
40
0.000001
41
0.000001
0
VERTEX
8
fr_3_frame
10
62117
20
436609
30
0
40
0.000001
41
0.000001
0
SEQEND
0
POLYLINE
8
fr_3_frame
40
0.000001
70
1
41
0.000001
66
1
0
VERTEX
8
fr_3_frame
10
62118
20
435256
30
0
40
0.000001
41
0.000001
0
VERTEX
8
fr_3_frame
10
56926
20
435327
30
0
40
0.000001
41
0.000001
0
VERTEX
8
fr_3_frame
10
56971
20
438720
30
0
40
0.000001
41
0.000001
0
VERTEX
8
fr_3_frame
10
62163
20
438650
30
0
40
0.000001
41
0.000001
0
VERTEX
8
fr_3_frame
10
62118
20
435256
30
0
40
0.000001
41
0.000001
0
SEQEND
0
POLYLINE
8
fr_3_frame
40
0.000001
70
1
41
0.000001
66
1
0
VERTEX
8
fr_3_frame
10
62113
20
433902
30
0
40
0.000001
41
0.000001
0
VERTEX
8
fr_3_frame
10
56923
20
433965
30
0
40
0.000001
41
0.000001
0
VERTEX
8
fr_3_frame
10
56962
20
437358
30
0
40
0.000001
41
0.000001
0
VERTEX
8
fr_3_frame
10
62153
20
437296
30
0
40
0.000001
41
0.000001
0
VERTEX
8
fr_3_frame
10
62113
20
433902
30
0
40
0.000001
41
0.000001
0
SEQEND
0
POLYLINE
8
fr_3_frame
40
0.000001
70
1
41
0.000001
66
1
0
VERTEX
8
fr_3_frame
10
62136
20
432568
30
0
40
0.000001
41
0.000001
0
VERTEX
8
fr_3_frame
10
56944
20
432584
30
0
40
0.000001
41
0.000001
0
VERTEX
8
fr_3_frame
10
56955
20
435978
30
0
40
0.000001
41
0.000001
0
VERTEX
8
fr_3_frame
10
62147
20
435962
30
0
40
0.000001
41
0.000001
0
VERTEX
8
fr_3_frame
10
62136
20
432568
30
0
40
0.000001
41
0.000001
0
SEQEND
0
POLYLINE
8
fr_3_frame
40
0.000001
70
1
41
0.000001
66
1
0
VERTEX
8
fr_3_frame
10
62132
20
431183
30
0
40
0.000001
41
0.000001
0
VERTEX
8
fr_3_frame
10
56940
20
431254
30
0
40
0.000001
41
0.000001
0
VERTEX
8
fr_3_frame
10
56986
20
434647
30
0
40
0.000001
41
0.000001
0
VERTEX
8
fr_3_frame
10
62178
20
434577
30
0
40
0.000001
41
0.000001
0
VERTEX
8
fr_3_frame
10
62132
20
431183
30
0
40
0.000001
41
0.000001
0
SEQEND
0
POLYLINE
8
fr_3_frame
40
0.000001
70
1
41
0.000001
66
1
0
VERTEX
8
fr_3_frame
10
62141
20
429840
30
0
40
0.000001
41
0.000001
0
VERTEX
8
fr_3_frame
10
56950
20
429884
30
0
40
0.000001
41
0.000001
0
VERTEX
8
fr_3_frame
10
56980
20
433278
30
0
40
0.000001
41
0.000001
0
VERTEX
8
fr_3_frame
10
62171
20
433234
30
0
40
0.000001
41
0.000001
0
VERTEX
8
fr_3_frame
10
62141
20
429840
30
0
40
0.000001
41
0.000001
0
SEQEND
0
POLYLINE
8
fr_3_frame
40
0.000001
70
1
41
0.000001
66
1
0
VERTEX
8
fr_3_frame
10
62149
20
428481
30
0
40
0.000001
41
0.000001
0
VERTEX
8
fr_3_frame
10
56958
20
428525
30
0
40
0.000001
41
0.000001
0
VERTEX
8
fr_3_frame
10
56987
20
431919
30
0
40
0.000001
41
0.000001
0
VERTEX
8
fr_3_frame
10
62178
20
431875
30
0
40
0.000001
41
0.000001
0
VERTEX
8
fr_3_frame
10
62149
20
428481
30
0
40
0.000001
41
0.000001
0
SEQEND
0
POLYLINE
8
fr_3_frame
40
0.000001
70
1
41
0.000001
66
1
0
VERTEX
8
fr_3_frame
10
62143
20
427115
30
0
40
0.000001
41
0.000001
0
VERTEX
8
fr_3_frame
10
56952
20
427177
30
0
40
0.000001
41
0.000001
0
VERTEX
8
fr_3_frame
10
56992
20
430571
30
0
40
0.000001
41
0.000001
0
VERTEX
8
fr_3_frame
10
62182
20
430508
30
0
40
0.000001
41
0.000001
0
VERTEX
8
fr_3_frame
10
62143
20
427115
30
0
40
0.000001
41
0.000001
0
SEQEND
0
POLYLINE
8
fr_3_frame
40
0.000001
70
1
41
0.000001
66
1
0
VERTEX
8
fr_3_frame
10
62123
20
425725
30
0
40
0.000001
41
0.000001
0
VERTEX
8
fr_3_frame
10
56933
20
425849
30
0
40
0.000001
41
0.000001
0
VERTEX
8
fr_3_frame
10
57014
20
429242
30
0
40
0.000001
41
0.000001
0
VERTEX
8
fr_3_frame
10
62205
20
429117
30
0
40
0.000001
41
0.000001
0
VERTEX
8
fr_3_frame
10
62123
20
425725
30
0
40
0.000001
41
0.000001
0
SEQEND
0
POLYLINE
8
fr_3_frame
40
0.000001
70
1
41
0.000001
66
1
0
VERTEX
8
fr_3_frame
10
62136
20
424400
30
0
40
0.000001
41
0.000001
0
VERTEX
8
fr_3_frame
10
56945
20
424462
30
0
40
0.000001
41
0.000001
0
VERTEX
8
fr_3_frame
10
56985
20
427855
30
0
40
0.000001
41
0.000001
0
VERTEX
8
fr_3_frame
10
62175
20
427793
30
0
40
0.000001
41
0.000001
0
VERTEX
8
fr_3_frame
10
62136
20
424400
30
0
40
0.000001
41
0.000001
0
SEQEND
0
POLYLINE
8
fr_3_frame
40
0.000001
70
1
41
0.000001
66
1
0
VERTEX
8
fr_3_frame
10
60623
20
427873
30
0
40
0.000001
41
0.000001
0
VERTEX
8
fr_3_frame
10
65815
20
427775
30
0
40
0.000001
41
0.000001
0
VERTEX
8
fr_3_frame
10
65751
20
424382
30
0
40
0.000001
41
0.000001
0
VERTEX
8
fr_3_frame
10
60560
20
424480
30
0
40
0.000001
41
0.000001
0
VERTEX
8
fr_3_frame
10
60623
20
427873
30
0
40
0.000001
41
0.000001
0
SEQEND
0
POLYLINE
8
fr_3_frame
40
0.000001
70
1
41
0.000001
66
1
0
VERTEX
8
fr_3_frame
10
60626
20
429232
30
0
40
0.000001
41
0.000001
0
VERTEX
8
fr_3_frame
10
65817
20
429134
30
0
40
0.000001
41
0.000001
0
VERTEX
8
fr_3_frame
10
65754
20
425741
30
0
40
0.000001
41
0.000001
0
VERTEX
8
fr_3_frame
10
60563
20
425839
30
0
40
0.000001
41
0.000001
0
VERTEX
8
fr_3_frame
10
60626
20
429232
30
0
40
0.000001
41
0.000001
0
SEQEND
0
POLYLINE
8
fr_3_frame
40
0.000001
70
1
41
0.000001
66
1
0
VERTEX
8
fr_3_frame
10
60592
20
430548
30
0
40
0.000001
41
0.000001
0
VERTEX
8
fr_3_frame
10
65784
20
430532
30
0
40
0.000001
41
0.000001
0
VERTEX
8
fr_3_frame
10
65773
20
427138
30
0
40
0.000001
41
0.000001
0
VERTEX
8
fr_3_frame
10
60581
20
427154
30
0
40
0.000001
41
0.000001
0
VERTEX
8
fr_3_frame
10
60592
20
430548
30
0
40
0.000001
41
0.000001
0
SEQEND
0
POLYLINE
8
fr_3_frame
40
0.000001
70
1
41
0.000001
66
1
0
VERTEX
8
fr_3_frame
10
60651
20
431987
30
0
40
0.000001
41
0.000001
0
VERTEX
8
fr_3_frame
10
65840
20
431806
30
0
40
0.000001
41
0.000001
0
VERTEX
8
fr_3_frame
10
65723
20
428415
30
0
40
0.000001
41
0.000001
0
VERTEX
8
fr_3_frame
10
60534
20
428596
30
0
40
0.000001
41
0.000001
0
VERTEX
8
fr_3_frame
10
60651
20
431987
30
0
40
0.000001
41
0.000001
0
SEQEND
0
POLYLINE
8
fr_3_frame
40
0.000001
70
1
41
0.000001
66
1
0
VERTEX
8
fr_3_frame
10
60620
20
433286
30
0
40
0.000001
41
0.000001
0
VERTEX
8
fr_3_frame
10
65810
20
433224
30
0
40
0.000001
41
0.000001
0
VERTEX
8
fr_3_frame
10
65771
20
429830
30
0
40
0.000001
41
0.000001
0
VERTEX
8
fr_3_frame
10
60581
20
429892
30
0
40
0.000001
41
0.000001
0
VERTEX
8
fr_3_frame
10
60620
20
433286
30
0
40
0.000001
41
0.000001
0
SEQEND
0
POLYLINE
8
fr_3_frame
40
0.000001
70
1
41
0.000001
66
1
0
VERTEX
8
fr_3_frame
10
60623
20
434648
30
0
40
0.000001
41
0.000001
0
VERTEX
8
fr_3_frame
10
65815
20
434578
30
0
40
0.000001
41
0.000001
0
VERTEX
8
fr_3_frame
10
65769
20
431184
30
0
40
0.000001
41
0.000001
0
VERTEX
8
fr_3_frame
10
60577
20
431255
30
0
40
0.000001
41
0.000001
0
VERTEX
8
fr_3_frame
10
60623
20
434648
30
0
40
0.000001
41
0.000001
0
SEQEND
0
POLYLINE
8
fr_3_frame
40
0.000001
70
1
41
0.000001
66
1
0
VERTEX
8
fr_3_frame
10
60595
20
435974
30
0
40
0.000001
41
0.000001
0
VERTEX
8
fr_3_frame
10
65787
20
435968
30
0
40
0.000001
41
0.000001
0
VERTEX
8
fr_3_frame
10
65782
20
432573
30
0
40
0.000001
41
0.000001
0
VERTEX
8
fr_3_frame
10
60590
20
432579
30
0
40
0.000001
41
0.000001
0
VERTEX
8
fr_3_frame
10
60595
20
435974
30
0
40
0.000001
41
0.000001
0
SEQEND
0
POLYLINE
8
fr_3_frame
40
0.000001
70
1
41
0.000001
66
1
0
VERTEX
8
fr_3_frame
10
60609
20
437368
30
0
40
0.000001
41
0.000001
0
VERTEX
8
fr_3_frame
10
65801
20
437287
30
0
40
0.000001
41
0.000001
0
VERTEX
8
fr_3_frame
10
65749
20
433894
30
0
40
0.000001
41
0.000001
0
VERTEX
8
fr_3_frame
10
60558
20
433974
30
0
40
0.000001
41
0.000001
0
VERTEX
8
fr_3_frame
10
60609
20
437368
30
0
40
0.000001
41
0.000001
0
SEQEND
0
POLYLINE
8
fr_3_frame
40
0.000001
70
1
41
0.000001
66
1
0
VERTEX
8
fr_3_frame
10
60622
20
438734
30
0
40
0.000001
41
0.000001
0
VERTEX
8
fr_3_frame
10
65813
20
438636
30
0
40
0.000001
41
0.000001
0
VERTEX
8
fr_3_frame
10
65750
20
435243
30
0
40
0.000001
41
0.000001
0
VERTEX
8
fr_3_frame
10
60558
20
435342
30
0
40
0.000001
41
0.000001
0
VERTEX
8
fr_3_frame
10
60622
20
438734
30
0
40
0.000001
41
0.000001
0
SEQEND
0
POLYLINE
8
fr_3_frame
40
0.000001
70
1
41
0.000001
66
1
0
VERTEX
8
fr_3_frame
10
60595
20
440056
30
0
40
0.000001
41
0.000001
0
VERTEX
8
fr_3_frame
10
65787
20
440030
30
0
40
0.000001
41
0.000001
0
VERTEX
8
fr_3_frame
10
65769
20
436636
30
0
40
0.000001
41
0.000001
0
VERTEX
8
fr_3_frame
10
60578
20
436662
30
0
40
0.000001
41
0.000001
0
VERTEX
8
fr_3_frame
10
60595
20
440056
30
0
40
0.000001
41
0.000001
0
SEQEND
0
POLYLINE
8
fr_3_frame
40
0.000001
70
1
41
0.000001
66
1
0
VERTEX
8
fr_3_frame
10
60637
20
441479
30
0
40
0.000001
41
0.000001
0
VERTEX
8
fr_3_frame
10
65826
20
441319
30
0
40
0.000001
41
0.000001
0
VERTEX
8
fr_3_frame
10
65721
20
437927
30
0
40
0.000001
41
0.000001
0
VERTEX
8
fr_3_frame
10
60531
20
438088
30
0
40
0.000001
41
0.000001
0
VERTEX
8
fr_3_frame
10
60637
20
441479
30
0
40
0.000001
41
0.000001
0
SEQEND
0
POLYLINE
8
fr_3_frame
40
0.000001
70
1
41
0.000001
66
1
0
VERTEX
8
fr_3_frame
10
60624
20
442791
30
0
40
0.000001
41
0.000001
0
VERTEX
8
fr_3_frame
10
65814
20
442728
30
0
40
0.000001
41
0.000001
0
VERTEX
8
fr_3_frame
10
65775
20
439335
30
0
40
0.000001
41
0.000001
0
VERTEX
8
fr_3_frame
10
60585
20
439397
30
0
40
0.000001
41
0.000001
0
VERTEX
8
fr_3_frame
10
60624
20
442791
30
0
40
0.000001
41
0.000001
0
SEQEND
0
POLYLINE
8
fr_3_frame
40
0.000001
70
1
41
0.000001
66
1
0
VERTEX
8
fr_3_frame
10
60644
20
444186
30
0
40
0.000001
41
0.000001
0
VERTEX
8
fr_3_frame
10
65833
20
444044
30
0
40
0.000001
41
0.000001
0
VERTEX
8
fr_3_frame
10
65740
20
440652
30
0
40
0.000001
41
0.000001
0
VERTEX
8
fr_3_frame
10
60550
20
440795
30
0
40
0.000001
41
0.000001
0
VERTEX
8
fr_3_frame
10
60644
20
444186
30
0
40
0.000001
41
0.000001
0
SEQEND
0
POLYLINE
8
fr_3_frame
40
0.000001
70
1
41
0.000001
66
1
0
VERTEX
8
fr_3_frame
10
60641
20
445518
30
0
40
0.000001
41
0.000001
0
VERTEX
8
fr_3_frame
10
65833
20
445429
30
0
40
0.000001
41
0.000001
0
VERTEX
8
fr_3_frame
10
65776
20
442036
30
0
40
0.000001
41
0.000001
0
VERTEX
8
fr_3_frame
10
60584
20
442125
30
0
40
0.000001
41
0.000001
0
VERTEX
8
fr_3_frame
10
60641
20
445518
30
0
40
0.000001
41
0.000001
0
SEQEND
0
POLYLINE
8
fr_3_frame
40
0.000001
70
1
41
0.000001
66
1
0
VERTEX
8
fr_3_frame
10
60663
20
446893
30
0
40
0.000001
41
0.000001
0
VERTEX
8
fr_3_frame
10
65853
20
446768
30
0
40
0.000001
41
0.000001
0
VERTEX
8
fr_3_frame
10
65772
20
443376
30
0
40
0.000001
41
0.000001
0
VERTEX
8
fr_3_frame
10
60581
20
443501
30
0
40
0.000001
41
0.000001
0
VERTEX
8
fr_3_frame
10
60663
20
446893
30
0
40
0.000001
41
0.000001
0
SEQEND
0
POLYLINE
8
fr_3_frame
40
0.000001
70
1
41
0.000001
66
1
0
VERTEX
8
fr_3_frame
10
60667
20
448232
30
0
40
0.000001
41
0.000001
0
VERTEX
8
fr_3_frame
10
65858
20
448143
30
0
40
0.000001
41
0.000001
0
VERTEX
8
fr_3_frame
10
65801
20
444751
30
0
40
0.000001
41
0.000001
0
VERTEX
8
fr_3_frame
10
60609
20
444839
30
0
40
0.000001
41
0.000001
0
VERTEX
8
fr_3_frame
10
60667
20
448232
30
0
40
0.000001
41
0.000001
0
SEQEND
0
POLYLINE
8
fr_3_frame
40
0.000001
70
1
41
0.000001
66
1
0
VERTEX
8
fr_3_frame
10
60626
20
449546
30
0
40
0.000001
41
0.000001
0
VERTEX
8
fr_3_frame
10
65818
20
449547
30
0
40
0.000001
41
0.000001
0
VERTEX
8
fr_3_frame
10
65819
20
446152
30
0
40
0.000001
41
0.000001
0
VERTEX
8
fr_3_frame
10
60626
20
446151
30
0
40
0.000001
41
0.000001
0
VERTEX
8
fr_3_frame
10
60626
20
449546
30
0
40
0.000001
41
0.000001
0
SEQEND
0
ENDSEC
0
EOF
