0
SECTION
2
HEADER
9
$EXTMIN
10
48673
20
423411
30
0.0
9
$EXTMAX
10
63210
20
449207
30
0.0
9
$LIMMIN
10
42858.2
20
423411
9
$LIMMAX
10
69024.8
20
449207
0
ENDSEC
0
SECTION
2
TABLES
0
TABLE
2
LTYPE
70
4
0
LTYPE
2
CONTINUOUS
70
64
3
Solid line
72
65
73
0
40
0.0
0
LTYPE
2
DASHED
70
64
3
Dashed line
72
65
73
2
40
0.8
49
0.5
49
-0.3
0
LTYPE
2
DOT
70
64
3
Dotted line
72
65
73
2
40
0.2
49
0.1
49
-0.1
0
LTYPE
2
DASHDOT
70
64
3
Dotted line
72
65
73
4
40
1
49
0.5
49
-0.2
49
0.1
49
-0.2
0
LTYPE
2
SMALLDOT
70
64
3
Small dotted
72
65
73
2
40
0.1
49
0
49
-0.1
0
LTYPE
2
CENTER
70
64
3
Centerline
72
65
73
4
40
1.1
49
0.8
49
-0.1
49
0.1
49
-0.1
0
ENDTAB
0
TABLE
2
LAYER
70
6
0
LAYER
2
LIMIT_LAYER
70
0
62
7
6
CONTINUOUS
0
LAYER
2
RUN_LAYER
70
0
62
1
6
CONTINUOUS
0
LAYER
2
BACKGROUND_LAYER
70
0
62
2
6
CONTINUOUS
0
LAYER
2
PHOTO_LAYER
70
0
62
3
6
CONTINUOUS
0
LAYER
2
PHOTO_TICKS_LAYER
70
0
62
1
6
CONTINUOUS
0
LAYER
2
fr_1
70
0
62
3
6
CONTINUOUS
0
LAYER
2
fr_2
70
0
62
3
6
CONTINUOUS
0
ENDTAB
0
TABLE
2
VIEW
70
0
0
ENDTAB
0
ENDSEC
0
SECTION
2
ENTITIES
0
TEXT
8
RUN_LAYER
62
0
10
48432.86
20
433573.6
30
0
40
599.652
1
1
50
0
0
TEXT
8
RUN_LAYER
62
0
10
48436.42
20
422271.7
30
0
40
599.652
1
1
50
0
0
TEXT
8
RUN_LAYER
62
0
10
52067.03
20
440362.6
30
0
40
599.652
1
2
50
0
0
TEXT
8
RUN_LAYER
62
0
10
52069.25
20
422271.7
30
0
40
599.652
1
2
50
0
0
TEXT
8
RUN_LAYER
62
0
10
55701.05
20
447150.6
30
0
40
599.652
1
3
50
0
0
TEXT
8
RUN_LAYER
62
0
10
55703.23
20
424986.7
30
0
40
599.652
1
3
50
0
0
TEXT
8
RUN_LAYER
62
0
10
59336.06
20
449866.6
30
0
40
599.652
1
4
50
0
0
TEXT
8
RUN_LAYER
62
0
10
59338.22
20
424987.7
30
0
40
599.652
1
4
50
0
0
TEXT
8
RUN_LAYER
62
0
10
62970.14
20
448508.6
30
0
40
599.652
1
5
50
0
0
TEXT
8
RUN_LAYER
62
0
10
62970.14
20
424992.7
30
0
40
599.652
1
5
50
0
0
POLYLINE
8
LIMIT_LAYER
40
0.000001
70
1
41
0.000001
66
1
0
VERTEX
8
LIMIT_LAYER
10
58393
20
427523
30
0
40
1
41
1
0
VERTEX
8
LIMIT_LAYER
10
58273
20
427515
30
0
40
1
41
1
0
VERTEX
8
LIMIT_LAYER
10
58149
20
427506
30
0
40
1
41
1
0
VERTEX
8
LIMIT_LAYER
10
58025
20
427497
30
0
40
1
41
1
0
VERTEX
8
LIMIT_LAYER
10
57901
20
427486
30
0
40
1
41
1
0
VERTEX
8
LIMIT_LAYER
10
57777
20
427475
30
0
40
1
41
1
0
VERTEX
8
LIMIT_LAYER
10
57652
20
427463
30
0
40
1
41
1
0
VERTEX
8
LIMIT_LAYER
10
57528
20
427450
30
0
40
1
41
1
0
VERTEX
8
LIMIT_LAYER
10
57405
20
427437
30
0
40
1
41
1
0
VERTEX
8
LIMIT_LAYER
10
57281
20
427422
30
0
40
1
41
1
0
VERTEX
8
LIMIT_LAYER
10
57157
20
427407
30
0
40
1
41
1
0
VERTEX
8
LIMIT_LAYER
10
57033
20
427391
30
0
40
1
41
1
0
VERTEX
8
LIMIT_LAYER
10
56910
20
427374
30
0
40
1
41
1
0
VERTEX
8
LIMIT_LAYER
10
56787
20
427357
30
0
40
1
41
1
0
VERTEX
8
LIMIT_LAYER
10
56663
20
427338
30
0
40
1
41
1
0
VERTEX
8
LIMIT_LAYER
10
56540
20
427319
30
0
40
1
41
1
0
VERTEX
8
LIMIT_LAYER
10
56417
20
427299
30
0
40
1
41
1
0
VERTEX
8
LIMIT_LAYER
10
56294
20
427279
30
0
40
1
41
1
0
VERTEX
8
LIMIT_LAYER
10
56171
20
427257
30
0
40
1
41
1
0
VERTEX
8
LIMIT_LAYER
10
56049
20
427235
30
0
40
1
41
1
0
VERTEX
8
LIMIT_LAYER
10
55926
20
427212
30
0
40
1
41
1
0
VERTEX
8
LIMIT_LAYER
10
55804
20
427188
30
0
40
1
41
1
0
VERTEX
8
LIMIT_LAYER
10
55682
20
427163
30
0
40
1
41
1
0
VERTEX
8
LIMIT_LAYER
10
55560
20
427138
30
0
40
1
41
1
0
VERTEX
8
LIMIT_LAYER
10
55438
20
427111
30
0
40
1
41
1
0
VERTEX
8
LIMIT_LAYER
10
55316
20
427084
30
0
40
1
41
1
0
VERTEX
8
LIMIT_LAYER
10
55195
20
427057
30
0
40
1
41
1
0
VERTEX
8
LIMIT_LAYER
10
55073
20
427028
30
0
40
1
41
1
0
VERTEX
8
LIMIT_LAYER
10
54952
20
426999
30
0
40
1
41
1
0
VERTEX
8
LIMIT_LAYER
10
54831
20
426969
30
0
40
1
41
1
0
VERTEX
8
LIMIT_LAYER
10
54711
20
426938
30
0
40
1
41
1
0
VERTEX
8
LIMIT_LAYER
10
54590
20
426906
30
0
40
1
41
1
0
VERTEX
8
LIMIT_LAYER
10
54470
20
426874
30
0
40
1
41
1
0
VERTEX
8
LIMIT_LAYER
10
54349
20
426840
30
0
40
1
41
1
0
VERTEX
8
LIMIT_LAYER
10
54230
20
426806
30
0
40
1
41
1
0
VERTEX
8
LIMIT_LAYER
10
54110
20
426772
30
0
40
1
41
1
0
VERTEX
8
LIMIT_LAYER
10
53990
20
426736
30
0
40
1
41
1
0
VERTEX
8
LIMIT_LAYER
10
53871
20
426700
30
0
40
1
41
1
0
VERTEX
8
LIMIT_LAYER
10
53752
20
426663
30
0
40
1
41
1
0
VERTEX
8
LIMIT_LAYER
10
53633
20
426625
30
0
40
1
41
1
0
VERTEX
8
LIMIT_LAYER
10
53515
20
426586
30
0
40
1
41
1
0
VERTEX
8
LIMIT_LAYER
10
53397
20
426547
30
0
40
1
41
1
0
VERTEX
8
LIMIT_LAYER
10
53279
20
426507
30
0
40
1
41
1
0
VERTEX
8
LIMIT_LAYER
10
53161
20
426466
30
0
40
1
41
1
0
VERTEX
8
LIMIT_LAYER
10
53043
20
426424
30
0
40
1
41
1
0
VERTEX
8
LIMIT_LAYER
10
52926
20
426382
30
0
40
1
41
1
0
VERTEX
8
LIMIT_LAYER
10
52809
20
426339
30
0
40
1
41
1
0
VERTEX
8
LIMIT_LAYER
10
52693
20
426295
30
0
40
1
41
1
0
VERTEX
8
LIMIT_LAYER
10
52576
20
426250
30
0
40
1
41
1
0
VERTEX
8
LIMIT_LAYER
10
52460
20
426205
30
0
40
1
41
1
0
VERTEX
8
LIMIT_LAYER
10
52344
20
426159
30
0
40
1
41
1
0
VERTEX
8
LIMIT_LAYER
10
52229
20
426112
30
0
40
1
41
1
0
VERTEX
8
LIMIT_LAYER
10
52114
20
426064
30
0
40
1
41
1
0
VERTEX
8
LIMIT_LAYER
10
51999
20
426016
30
0
40
1
41
1
0
VERTEX
8
LIMIT_LAYER
10
51884
20
425967
30
0
40
1
41
1
0
VERTEX
8
LIMIT_LAYER
10
51770
20
425917
30
0
40
1
41
1
0
VERTEX
8
LIMIT_LAYER
10
51656
20
425867
30
0
40
1
41
1
0
VERTEX
8
LIMIT_LAYER
10
51542
20
425815
30
0
40
1
41
1
0
VERTEX
8
LIMIT_LAYER
10
51429
20
425763
30
0
40
1
41
1
0
VERTEX
8
LIMIT_LAYER
10
51316
20
425711
30
0
40
1
41
1
0
VERTEX
8
LIMIT_LAYER
10
51204
20
425657
30
0
40
1
41
1
0
VERTEX
8
LIMIT_LAYER
10
51091
20
425603
30
0
40
1
41
1
0
VERTEX
8
LIMIT_LAYER
10
50979
20
425548
30
0
40
1
41
1
0
VERTEX
8
LIMIT_LAYER
10
50868
20
425492
30
0
40
1
41
1
0
VERTEX
8
LIMIT_LAYER
10
50757
20
425436
30
0
40
1
41
1
0
VERTEX
8
LIMIT_LAYER
10
50646
20
425379
30
0
40
1
41
1
0
VERTEX
8
LIMIT_LAYER
10
50535
20
425321
30
0
40
1
41
1
0
VERTEX
8
LIMIT_LAYER
10
50425
20
425263
30
0
40
1
41
1
0
VERTEX
8
LIMIT_LAYER
10
50316
20
425204
30
0
40
1
41
1
0
VERTEX
8
LIMIT_LAYER
10
50206
20
425144
30
0
40
1
41
1
0
VERTEX
8
LIMIT_LAYER
10
50097
20
425083
30
0
40
1
41
1
0
VERTEX
8
LIMIT_LAYER
10
49989
20
425022
30
0
40
1
41
1
0
VERTEX
8
LIMIT_LAYER
10
49881
20
424960
30
0
40
1
41
1
0
VERTEX
8
LIMIT_LAYER
10
49773
20
424897
30
0
40
1
41
1
0
VERTEX
8
LIMIT_LAYER
10
49666
20
424834
30
0
40
1
41
1
0
VERTEX
8
LIMIT_LAYER
10
49559
20
424770
30
0
40
1
41
1
0
VERTEX
8
LIMIT_LAYER
10
49452
20
424705
30
0
40
1
41
1
0
VERTEX
8
LIMIT_LAYER
10
49416
20
424683
30
0
40
1
41
1
0
VERTEX
8
LIMIT_LAYER
10
47528
20
425622
30
0
40
1
41
1
0
VERTEX
8
LIMIT_LAYER
10
59178
20
447827
30
0
40
1
41
1
0
VERTEX
8
LIMIT_LAYER
10
63405
20
446050
30
0
40
1
41
1
0
VERTEX
8
LIMIT_LAYER
10
59433
20
437612
30
0
40
1
41
1
0
VERTEX
8
LIMIT_LAYER
10
58393
20
427523
30
0
40
1
41
1
0
SEQEND
0
POLYLINE
8
BACKGROUND_LAYER
62
0
40
1
70
0
41
1
66
1
0
VERTEX
8
BACKGROUND_LAYER
10
63540
20
437619
30
0
40
1
41
1
0
VERTEX
8
BACKGROUND_LAYER
10
63529
20
437315
30
0
40
1
41
1
0
VERTEX
8
BACKGROUND_LAYER
10
63520
20
437011
30
0
40
1
41
1
0
VERTEX
8
BACKGROUND_LAYER
10
63514
20
436707
30
0
40
1
41
1
0
VERTEX
8
BACKGROUND_LAYER
10
63512
20
436404
30
0
40
1
41
1
0
VERTEX
8
BACKGROUND_LAYER
10
63512
20
436100
30
0
40
1
41
1
0
VERTEX
8
BACKGROUND_LAYER
10
63514
20
435796
30
0
40
1
41
1
0
VERTEX
8
BACKGROUND_LAYER
10
63520
20
435492
30
0
40
1
41
1
0
VERTEX
8
BACKGROUND_LAYER
10
63528
20
435188
30
0
40
1
41
1
0
VERTEX
8
BACKGROUND_LAYER
10
63539
20
434885
30
0
40
1
41
1
0
VERTEX
8
BACKGROUND_LAYER
10
63553
20
434581
30
0
40
1
41
1
0
VERTEX
8
BACKGROUND_LAYER
10
63570
20
434278
30
0
40
1
41
1
0
VERTEX
8
BACKGROUND_LAYER
10
63590
20
433974
30
0
40
1
41
1
0
VERTEX
8
BACKGROUND_LAYER
10
63612
20
433671
30
0
40
1
41
1
0
VERTEX
8
BACKGROUND_LAYER
10
63637
20
433369
30
0
40
1
41
1
0
VERTEX
8
BACKGROUND_LAYER
10
63665
20
433066
30
0
40
1
41
1
0
VERTEX
8
BACKGROUND_LAYER
10
63696
20
432763
30
0
40
1
41
1
0
VERTEX
8
BACKGROUND_LAYER
10
63730
20
432462
30
0
40
1
41
1
0
VERTEX
8
BACKGROUND_LAYER
10
63766
20
432160
30
0
40
1
41
1
0
VERTEX
8
BACKGROUND_LAYER
10
63805
20
431859
30
0
40
1
41
1
0
VERTEX
8
BACKGROUND_LAYER
10
63847
20
431558
30
0
40
1
41
1
0
VERTEX
8
BACKGROUND_LAYER
10
63892
20
431257
30
0
40
1
41
1
0
VERTEX
8
BACKGROUND_LAYER
10
63939
20
430957
30
0
40
1
41
1
0
VERTEX
8
BACKGROUND_LAYER
10
63989
20
430657
30
0
40
1
41
1
0
VERTEX
8
BACKGROUND_LAYER
10
64042
20
430358
30
0
40
1
41
1
0
VERTEX
8
BACKGROUND_LAYER
10
64098
20
430059
30
0
40
1
41
1
0
VERTEX
8
BACKGROUND_LAYER
10
64156
20
429761
30
0
40
1
41
1
0
VERTEX
8
BACKGROUND_LAYER
10
64218
20
429463
30
0
40
1
41
1
0
VERTEX
8
BACKGROUND_LAYER
10
64282
20
429166
30
0
40
1
41
1
0
VERTEX
8
BACKGROUND_LAYER
10
64348
20
428870
30
0
40
1
41
1
0
VERTEX
8
BACKGROUND_LAYER
10
62206
20
426791
30
0
40
1
41
1
0
VERTEX
8
BACKGROUND_LAYER
10
62085
20
426855
30
0
40
1
41
1
0
VERTEX
8
BACKGROUND_LAYER
10
61962
20
426916
30
0
40
1
41
1
0
VERTEX
8
BACKGROUND_LAYER
10
61838
20
426974
30
0
40
1
41
1
0
VERTEX
8
BACKGROUND_LAYER
10
61712
20
427029
30
0
40
1
41
1
0
VERTEX
8
BACKGROUND_LAYER
10
61586
20
427082
30
0
40
1
41
1
0
VERTEX
8
BACKGROUND_LAYER
10
61458
20
427133
30
0
40
1
41
1
0
VERTEX
8
BACKGROUND_LAYER
10
61329
20
427180
30
0
40
1
41
1
0
VERTEX
8
BACKGROUND_LAYER
10
61200
20
427224
30
0
40
1
41
1
0
VERTEX
8
BACKGROUND_LAYER
10
61069
20
427266
30
0
40
1
41
1
0
VERTEX
8
BACKGROUND_LAYER
10
60938
20
427305
30
0
40
1
41
1
0
VERTEX
8
BACKGROUND_LAYER
10
60805
20
427341
30
0
40
1
41
1
0
VERTEX
8
BACKGROUND_LAYER
10
60672
20
427375
30
0
40
1
41
1
0
VERTEX
8
BACKGROUND_LAYER
10
60538
20
427405
30
0
40
1
41
1
0
VERTEX
8
BACKGROUND_LAYER
10
60404
20
427432
30
0
40
1
41
1
0
VERTEX
8
BACKGROUND_LAYER
10
60269
20
427457
30
0
40
1
41
1
0
VERTEX
8
BACKGROUND_LAYER
10
60134
20
427478
30
0
40
1
41
1
0
VERTEX
8
BACKGROUND_LAYER
10
59998
20
427497
30
0
40
1
41
1
0
VERTEX
8
BACKGROUND_LAYER
10
59861
20
427513
30
0
40
1
41
1
0
VERTEX
8
BACKGROUND_LAYER
10
59725
20
427526
30
0
40
1
41
1
0
VERTEX
8
BACKGROUND_LAYER
10
59587
20
427535
30
0
40
1
41
1
0
VERTEX
8
BACKGROUND_LAYER
10
59451
20
427542
30
0
40
1
41
1
0
VERTEX
8
BACKGROUND_LAYER
10
59314
20
427546
30
0
40
1
41
1
0
VERTEX
8
BACKGROUND_LAYER
10
59177
20
427547
30
0
40
1
41
1
0
VERTEX
8
BACKGROUND_LAYER
10
59040
20
427545
30
0
40
1
41
1
0
VERTEX
8
BACKGROUND_LAYER
10
58903
20
427540
30
0
40
1
41
1
0
VERTEX
8
BACKGROUND_LAYER
10
58766
20
427532
30
0
40
1
41
1
0
VERTEX
8
BACKGROUND_LAYER
10
58629
20
427521
30
0
40
1
41
1
0
VERTEX
8
BACKGROUND_LAYER
10
58493
20
427508
30
0
40
1
41
1
0
VERTEX
8
BACKGROUND_LAYER
10
58356
20
427491
30
0
40
1
41
1
0
VERTEX
8
BACKGROUND_LAYER
10
58029
20
427468
30
0
40
1
41
1
0
VERTEX
8
BACKGROUND_LAYER
10
57703
20
427439
30
0
40
1
41
1
0
VERTEX
8
BACKGROUND_LAYER
10
57377
20
427405
30
0
40
1
41
1
0
VERTEX
8
BACKGROUND_LAYER
10
57051
20
427366
30
0
40
1
41
1
0
VERTEX
8
BACKGROUND_LAYER
10
56726
20
427321
30
0
40
1
41
1
0
VERTEX
8
BACKGROUND_LAYER
10
56402
20
427270
30
0
40
1
41
1
0
VERTEX
8
BACKGROUND_LAYER
10
56079
20
427215
30
0
40
1
41
1
0
VERTEX
8
BACKGROUND_LAYER
10
55757
20
427153
30
0
40
1
41
1
0
VERTEX
8
BACKGROUND_LAYER
10
55436
20
427086
30
0
40
1
41
1
0
VERTEX
8
BACKGROUND_LAYER
10
55116
20
427014
30
0
40
1
41
1
0
VERTEX
8
BACKGROUND_LAYER
10
54797
20
426937
30
0
40
1
41
1
0
VERTEX
8
BACKGROUND_LAYER
10
54480
20
426854
30
0
40
1
41
1
0
VERTEX
8
BACKGROUND_LAYER
10
54164
20
426765
30
0
40
1
41
1
0
VERTEX
8
BACKGROUND_LAYER
10
53850
20
426672
30
0
40
1
41
1
0
VERTEX
8
BACKGROUND_LAYER
10
53537
20
426573
30
0
40
1
41
1
0
VERTEX
8
BACKGROUND_LAYER
10
53226
20
426469
30
0
40
1
41
1
0
VERTEX
8
BACKGROUND_LAYER
10
52917
20
426359
30
0
40
1
41
1
0
VERTEX
8
BACKGROUND_LAYER
10
52610
20
426245
30
0
40
1
41
1
0
VERTEX
8
BACKGROUND_LAYER
10
52305
20
426125
30
0
40
1
41
1
0
VERTEX
8
BACKGROUND_LAYER
10
52001
20
426000
30
0
40
1
41
1
0
VERTEX
8
BACKGROUND_LAYER
10
51700
20
425870
30
0
40
1
41
1
0
VERTEX
8
BACKGROUND_LAYER
10
51401
20
425735
30
0
40
1
41
1
0
VERTEX
8
BACKGROUND_LAYER
10
51105
20
425595
30
0
40
1
41
1
0
VERTEX
8
BACKGROUND_LAYER
10
50810
20
425450
30
0
40
1
41
1
0
VERTEX
8
BACKGROUND_LAYER
10
50519
20
425300
30
0
40
1
41
1
0
VERTEX
8
BACKGROUND_LAYER
10
50230
20
425145
30
0
40
1
41
1
0
VERTEX
8
BACKGROUND_LAYER
10
49944
20
424985
30
0
40
1
41
1
0
VERTEX
8
BACKGROUND_LAYER
10
49660
20
424820
30
0
40
1
41
1
0
VERTEX
8
BACKGROUND_LAYER
10
49379
20
424651
30
0
40
1
41
1
0
VERTEX
8
BACKGROUND_LAYER
10
47492
20
425590
30
0
40
1
41
1
0
VERTEX
8
BACKGROUND_LAYER
10
59141
20
447795
30
0
40
1
41
1
0
VERTEX
8
BACKGROUND_LAYER
10
63369
20
446018
30
0
40
1
41
1
0
VERTEX
8
BACKGROUND_LAYER
10
60163
20
439209
30
0
40
1
41
1
0
VERTEX
8
BACKGROUND_LAYER
10
63540
20
437619
30
0
40
1
41
1
0
SEQEND
0
CIRCLE
8
fr_2
10
48684
20
423412
30
0
40
299.826
39
0
0
TEXT
8
fr_2
62
0
10
48684
20
423412
30
0
40
599.652
1
40085
50
0
0
CIRCLE
8
fr_2
10
48690
20
424769
30
0
40
299.826
39
0
0
CIRCLE
8
fr_2
10
48713
20
426126
30
0
40
299.826
39
0
0
CIRCLE
8
fr_2
10
48697
20
427485
30
0
40
299.826
39
0
0
CIRCLE
8
fr_2
10
48670
20
428842
30
0
40
299.826
39
0
0
CIRCLE
8
fr_2
10
48664
20
430199
30
0
40
299.826
39
0
0
TEXT
8
fr_2
62
0
10
48664
20
430199
30
0
40
599.652
1
40090
50
0
0
CIRCLE
8
fr_2
10
48679
20
431557
30
0
40
299.826
39
0
0
CIRCLE
8
fr_2
10
48699
20
432915
30
0
40
299.826
39
0
0
TEXT
8
fr_2
62
0
10
48699
20
432915
30
0
40
599.652
1
40092
50
0
0
CIRCLE
8
fr_2
10
52293
20
439704
30
0
40
299.826
39
0
0
TEXT
8
fr_2
62
0
10
52293
20
439704
30
0
40
599.652
1
40093
50
0
0
CIRCLE
8
fr_2
10
52265
20
438346
30
0
40
299.826
39
0
0
CIRCLE
8
fr_2
10
52252
20
436989
30
0
40
299.826
39
0
0
TEXT
8
fr_2
62
0
10
52252
20
436989
30
0
40
599.652
1
40095
50
0
0
CIRCLE
8
fr_2
10
52244
20
435632
30
0
40
299.826
39
0
0
CIRCLE
8
fr_2
10
52243
20
434274
30
0
40
299.826
39
0
0
CIRCLE
8
fr_2
10
52247
20
432916
30
0
40
299.826
39
0
0
CIRCLE
8
fr_2
10
52258
20
431558
30
0
40
299.826
39
0
0
CIRCLE
8
fr_2
10
52282
20
430200
30
0
40
299.826
39
0
0
TEXT
8
fr_2
62
0
10
52282
20
430200
30
0
40
599.652
1
40100
50
0
0
CIRCLE
8
fr_2
10
52305
20
428842
30
0
40
299.826
39
0
0
CIRCLE
8
fr_2
10
52328
20
427483
30
0
40
299.826
39
0
0
CIRCLE
8
fr_2
10
52344
20
426126
30
0
40
299.826
39
0
0
CIRCLE
8
fr_2
10
52341
20
424768
30
0
40
299.826
39
0
0
CIRCLE
8
fr_2
10
52331
20
423409
30
0
40
299.826
39
0
0
TEXT
8
fr_2
62
0
10
52331
20
423409
30
0
40
599.652
1
40105
50
0
0
CIRCLE
8
fr_2
10
55991
20
426126
30
0
40
299.826
39
0
0
TEXT
8
fr_2
62
0
10
55991
20
426126
30
0
40
599.652
1
40106
50
0
0
CIRCLE
8
fr_2
10
55990
20
427483
30
0
40
299.826
39
0
0
CIRCLE
8
fr_2
10
55960
20
428841
30
0
40
299.826
39
0
0
CIRCLE
8
fr_2
10
55959
20
430198
30
0
40
299.826
39
0
0
CIRCLE
8
fr_2
10
55981
20
431557
30
0
40
299.826
39
0
0
TEXT
8
fr_2
62
0
10
55981
20
431557
30
0
40
599.652
1
40110
50
0
0
CIRCLE
8
fr_2
10
55982
20
432915
30
0
40
299.826
39
0
0
CIRCLE
8
fr_2
10
55946
20
434273
30
0
40
299.826
39
0
0
CIRCLE
8
fr_2
10
55903
20
435630
30
0
40
299.826
39
0
0
CIRCLE
8
fr_2
10
55895
20
436988
30
0
40
299.826
39
0
0
CIRCLE
8
fr_2
10
55928
20
438346
30
0
40
299.826
39
0
0
TEXT
8
fr_2
62
0
10
55928
20
438346
30
0
40
599.652
1
40115
50
0
0
CIRCLE
8
fr_2
10
55949
20
439704
30
0
40
299.826
39
0
0
CIRCLE
8
fr_2
10
55931
20
441060
30
0
40
299.826
39
0
0
CIRCLE
8
fr_2
10
55904
20
442419
30
0
40
299.826
39
0
0
CIRCLE
8
fr_2
10
55918
20
443776
30
0
40
299.826
39
0
0
CIRCLE
8
fr_2
10
55951
20
445133
30
0
40
299.826
39
0
0
TEXT
8
fr_2
62
0
10
55951
20
445133
30
0
40
599.652
1
40120
50
0
0
CIRCLE
8
fr_2
10
55967
20
446491
30
0
40
299.826
39
0
0
TEXT
8
fr_2
62
0
10
55967
20
446491
30
0
40
599.652
1
40121
50
0
0
CIRCLE
8
fr_2
10
59532
20
449207
30
0
40
299.826
39
0
0
TEXT
8
fr_2
62
0
10
59532
20
449207
30
0
40
599.652
1
40122
50
0
0
CIRCLE
8
fr_2
10
59531
20
447850
30
0
40
299.826
39
0
0
CIRCLE
8
fr_2
10
59537
20
446492
30
0
40
299.826
39
0
0
CIRCLE
8
fr_2
10
59542
20
445134
30
0
40
299.826
39
0
0
TEXT
8
fr_2
62
0
10
59542
20
445134
30
0
40
599.652
1
40125
50
0
0
CIRCLE
8
fr_2
10
59535
20
443776
30
0
40
299.826
39
0
0
CIRCLE
8
fr_2
10
59529
20
442419
30
0
40
299.826
39
0
0
CIRCLE
8
fr_2
10
59524
20
441061
30
0
40
299.826
39
0
0
CIRCLE
8
fr_2
10
59540
20
439704
30
0
40
299.826
39
0
0
CIRCLE
8
fr_2
10
59551
20
438346
30
0
40
299.826
39
0
0
TEXT
8
fr_2
62
0
10
59551
20
438346
30
0
40
599.652
1
40130
50
0
0
CIRCLE
8
fr_2
10
59563
20
436989
30
0
40
299.826
39
0
0
CIRCLE
8
fr_2
10
59580
20
435629
30
0
40
299.826
39
0
0
CIRCLE
8
fr_2
10
59594
20
434273
30
0
40
299.826
39
0
0
CIRCLE
8
fr_2
10
59605
20
432915
30
0
40
299.826
39
0
0
CIRCLE
8
fr_2
10
59604
20
431559
30
0
40
299.826
39
0
0
TEXT
8
fr_2
62
0
10
59604
20
431559
30
0
40
599.652
1
40135
50
0
0
CIRCLE
8
fr_2
10
59586
20
430199
30
0
40
299.826
39
0
0
CIRCLE
8
fr_2
10
59581
20
428842
30
0
40
299.826
39
0
0
CIRCLE
8
fr_2
10
59579
20
427484
30
0
40
299.826
39
0
0
CIRCLE
8
fr_2
10
59574
20
426127
30
0
40
299.826
39
0
0
TEXT
8
fr_2
62
0
10
59574
20
426127
30
0
40
599.652
1
40139
50
0
0
CIRCLE
8
fr_2
10
63221
20
426126
30
0
40
299.826
39
0
0
TEXT
8
fr_2
62
0
10
63221
20
426126
30
0
40
599.652
1
40140
50
0
0
CIRCLE
8
fr_2
10
63184
20
427485
30
0
40
299.826
39
0
0
CIRCLE
8
fr_2
10
63184
20
428843
30
0
40
299.826
39
0
0
CIRCLE
8
fr_2
10
63211
20
430200
30
0
40
299.826
39
0
0
CIRCLE
8
fr_2
10
63229
20
431557
30
0
40
299.826
39
0
0
CIRCLE
8
fr_2
10
63212
20
432916
30
0
40
299.826
39
0
0
TEXT
8
fr_2
62
0
10
63212
20
432916
30
0
40
599.652
1
40145
50
0
0
CIRCLE
8
fr_2
10
63167
20
434273
30
0
40
299.826
39
0
0
CIRCLE
8
fr_2
10
63163
20
435631
30
0
40
299.826
39
0
0
CIRCLE
8
fr_2
10
63186
20
436989
30
0
40
299.826
39
0
0
CIRCLE
8
fr_2
10
63210
20
438346
30
0
40
299.826
39
0
0
CIRCLE
8
fr_2
10
63223
20
439704
30
0
40
299.826
39
0
0
TEXT
8
fr_2
62
0
10
63223
20
439704
30
0
40
599.652
1
40150
50
0
0
CIRCLE
8
fr_2
10
63215
20
441061
30
0
40
299.826
39
0
0
CIRCLE
8
fr_2
10
63196
20
442419
30
0
40
299.826
39
0
0
CIRCLE
8
fr_2
10
63170
20
443777
30
0
40
299.826
39
0
0
CIRCLE
8
fr_2
10
63177
20
445134
30
0
40
299.826
39
0
0
CIRCLE
8
fr_2
10
63216
20
446492
30
0
40
299.826
39
0
0
TEXT
8
fr_2
62
0
10
63216
20
446492
30
0
40
599.652
1
40155
50
0
0
CIRCLE
8
fr_2
10
63272
20
447848
30
0
40
299.826
39
0
0
TEXT
8
fr_2
62
0
10
63272
20
447848
30
0
40
599.652
1
40156
50
0
0
LINE
8
PHOTO_TICKS_LAYER
10
48972.82
20
432914.1
30
0
11
48373.18
21
432913.9
31
0
0
LINE
8
PHOTO_TICKS_LAYER
10
48973.82
20
431557.1
30
0
11
48374.18
21
431556.9
31
0
0
LINE
8
PHOTO_TICKS_LAYER
10
48973.82
20
430199.1
30
0
11
48374.18
21
430198.9
31
0
0
LINE
8
PHOTO_TICKS_LAYER
10
48974.82
20
428842.1
30
0
11
48375.18
21
428841.9
31
0
0
LINE
8
PHOTO_TICKS_LAYER
10
48973.82
20
427484.1
30
0
11
48374.18
21
427483.9
31
0
0
LINE
8
PHOTO_TICKS_LAYER
10
48974.82
20
426126.1
30
0
11
48375.18
21
426125.9
31
0
0
LINE
8
PHOTO_TICKS_LAYER
10
48974.82
20
424768.1
30
0
11
48375.18
21
424767.9
31
0
0
LINE
8
PHOTO_TICKS_LAYER
10
48975.82
20
423411.1
30
0
11
48376.18
21
423410.9
31
0
0
LINE
8
PHOTO_TICKS_LAYER
10
52606.82
20
439703
30
0
11
52007.18
21
439703
31
0
0
LINE
8
PHOTO_TICKS_LAYER
10
52607.82
20
438346
30
0
11
52008.18
21
438346
31
0
0
LINE
8
PHOTO_TICKS_LAYER
10
52606.82
20
436988
30
0
11
52007.18
21
436988
31
0
0
LINE
8
PHOTO_TICKS_LAYER
10
52607.82
20
435631
30
0
11
52008.18
21
435631
31
0
0
LINE
8
PHOTO_TICKS_LAYER
10
52607.82
20
434272
30
0
11
52008.18
21
434272
31
0
0
LINE
8
PHOTO_TICKS_LAYER
10
52607.82
20
432915
30
0
11
52008.18
21
432915
31
0
0
LINE
8
PHOTO_TICKS_LAYER
10
52607.82
20
431557
30
0
11
52008.18
21
431557
31
0
0
LINE
8
PHOTO_TICKS_LAYER
10
52608.82
20
430200
30
0
11
52009.18
21
430200
31
0
0
LINE
8
PHOTO_TICKS_LAYER
10
52607.82
20
428842
30
0
11
52008.18
21
428842
31
0
0
LINE
8
PHOTO_TICKS_LAYER
10
52608.82
20
427484
30
0
11
52009.18
21
427484
31
0
0
LINE
8
PHOTO_TICKS_LAYER
10
52608.82
20
426126
30
0
11
52009.18
21
426126
31
0
0
LINE
8
PHOTO_TICKS_LAYER
10
52608.82
20
424769
30
0
11
52009.18
21
424769
31
0
0
LINE
8
PHOTO_TICKS_LAYER
10
52608.82
20
423411
30
0
11
52009.18
21
423411
31
0
0
LINE
8
PHOTO_TICKS_LAYER
10
56240.82
20
446491
30
0
11
55641.18
21
446491
31
0
0
LINE
8
PHOTO_TICKS_LAYER
10
56241.82
20
445134
30
0
11
55642.18
21
445134
31
0
0
LINE
8
PHOTO_TICKS_LAYER
10
56240.82
20
443775
30
0
11
55641.18
21
443775
31
0
0
LINE
8
PHOTO_TICKS_LAYER
10
56241.82
20
442418
30
0
11
55642.18
21
442418
31
0
0
LINE
8
PHOTO_TICKS_LAYER
10
56241.82
20
441060
30
0
11
55642.18
21
441060
31
0
0
LINE
8
PHOTO_TICKS_LAYER
10
56241.82
20
439703
30
0
11
55642.18
21
439703
31
0
0
LINE
8
PHOTO_TICKS_LAYER
10
56241.82
20
438345
30
0
11
55642.18
21
438345
31
0
0
LINE
8
PHOTO_TICKS_LAYER
10
56241.82
20
436988
30
0
11
55642.18
21
436988
31
0
0
LINE
8
PHOTO_TICKS_LAYER
10
56241.82
20
435629
30
0
11
55642.18
21
435629
31
0
0
LINE
8
PHOTO_TICKS_LAYER
10
56241.82
20
434272
30
0
11
55642.18
21
434272
31
0
0
LINE
8
PHOTO_TICKS_LAYER
10
56242.82
20
432914
30
0
11
55643.18
21
432914
31
0
0
LINE
8
PHOTO_TICKS_LAYER
10
56241.82
20
431557
30
0
11
55642.18
21
431557
31
0
0
LINE
8
PHOTO_TICKS_LAYER
10
56242.82
20
430199
30
0
11
55643.18
21
430199
31
0
0
LINE
8
PHOTO_TICKS_LAYER
10
56242.82
20
428841
30
0
11
55643.18
21
428841
31
0
0
LINE
8
PHOTO_TICKS_LAYER
10
56242.82
20
427483
30
0
11
55643.18
21
427483
31
0
0
LINE
8
PHOTO_TICKS_LAYER
10
56242.82
20
426126
30
0
11
55643.18
21
426126
31
0
0
LINE
8
PHOTO_TICKS_LAYER
10
59875.82
20
449207
30
0
11
59276.18
21
449207
31
0
0
LINE
8
PHOTO_TICKS_LAYER
10
59875.82
20
447850
30
0
11
59276.18
21
447850
31
0
0
LINE
8
PHOTO_TICKS_LAYER
10
59875.82
20
446491
30
0
11
59276.18
21
446491
31
0
0
LINE
8
PHOTO_TICKS_LAYER
10
59875.82
20
445134
30
0
11
59276.18
21
445134
31
0
0
LINE
8
PHOTO_TICKS_LAYER
10
59875.82
20
443776
30
0
11
59276.18
21
443776
31
0
0
LINE
8
PHOTO_TICKS_LAYER
10
59876.82
20
442419
30
0
11
59277.18
21
442419
31
0
0
LINE
8
PHOTO_TICKS_LAYER
10
59875.82
20
441061
30
0
11
59276.18
21
441061
31
0
0
LINE
8
PHOTO_TICKS_LAYER
10
59876.82
20
439704
30
0
11
59277.18
21
439704
31
0
0
LINE
8
PHOTO_TICKS_LAYER
10
59876.82
20
438345
30
0
11
59277.18
21
438345
31
0
0
LINE
8
PHOTO_TICKS_LAYER
10
59876.82
20
436988
30
0
11
59277.18
21
436988
31
0
0
LINE
8
PHOTO_TICKS_LAYER
10
59876.82
20
435630
30
0
11
59277.18
21
435630
31
0
0
LINE
8
PHOTO_TICKS_LAYER
10
59876.82
20
434273
30
0
11
59277.18
21
434273
31
0
0
LINE
8
PHOTO_TICKS_LAYER
10
59876.82
20
432915
30
0
11
59277.18
21
432915
31
0
0
LINE
8
PHOTO_TICKS_LAYER
10
59876.82
20
431558
30
0
11
59277.18
21
431558
31
0
0
LINE
8
PHOTO_TICKS_LAYER
10
59877.82
20
430199
30
0
11
59278.18
21
430199
31
0
0
LINE
8
PHOTO_TICKS_LAYER
10
59877.82
20
428842
30
0
11
59278.18
21
428842
31
0
0
LINE
8
PHOTO_TICKS_LAYER
10
59877.82
20
427484
30
0
11
59278.18
21
427484
31
0
0
LINE
8
PHOTO_TICKS_LAYER
10
59877.82
20
426127
30
0
11
59278.18
21
426127
31
0
0
LINE
8
PHOTO_TICKS_LAYER
10
63509.82
20
447849
30
0
11
62910.18
21
447849
31
0
0
LINE
8
PHOTO_TICKS_LAYER
10
63510.82
20
446492
30
0
11
62911.18
21
446492
31
0
0
LINE
8
PHOTO_TICKS_LAYER
10
63509.82
20
445134
30
0
11
62910.18
21
445134
31
0
0
LINE
8
PHOTO_TICKS_LAYER
10
63510.82
20
443777
30
0
11
62911.18
21
443777
31
0
0
LINE
8
PHOTO_TICKS_LAYER
10
63509.82
20
442419
30
0
11
62910.18
21
442419
31
0
0
LINE
8
PHOTO_TICKS_LAYER
10
63509.82
20
441061
30
0
11
62910.18
21
441061
31
0
0
LINE
8
PHOTO_TICKS_LAYER
10
63509.82
20
439703
30
0
11
62910.18
21
439703
31
0
0
LINE
8
PHOTO_TICKS_LAYER
10
63509.82
20
438346
30
0
11
62910.18
21
438346
31
0
0
LINE
8
PHOTO_TICKS_LAYER
10
63509.82
20
436988
30
0
11
62910.18
21
436988
31
0
0
LINE
8
PHOTO_TICKS_LAYER
10
63509.82
20
435631
30
0
11
62910.18
21
435631
31
0
0
LINE
8
PHOTO_TICKS_LAYER
10
63509.82
20
434273
30
0
11
62910.18
21
434273
31
0
0
LINE
8
PHOTO_TICKS_LAYER
10
63509.82
20
432916
30
0
11
62910.18
21
432916
31
0
0
LINE
8
PHOTO_TICKS_LAYER
10
63509.82
20
431557
30
0
11
62910.18
21
431557
31
0
0
LINE
8
PHOTO_TICKS_LAYER
10
63509.82
20
430200
30
0
11
62910.18
21
430200
31
0
0
LINE
8
PHOTO_TICKS_LAYER
10
63508.82
20
428842
30
0
11
62909.18
21
428842
31
0
0
LINE
8
PHOTO_TICKS_LAYER
10
63509.82
20
427485
30
0
11
62910.18
21
427485
31
0
0
LINE
8
PHOTO_TICKS_LAYER
10
63508.82
20
426127
30
0
11
62909.18
21
426127
31
0
0
POLYLINE
8
RUN_LAYER
62
1
40
0.000001
70
0
41
0.000001
66
1
0
VERTEX
8
RUN_LAYER
10
48673
20
432914
30
0
40
0.000001
41
0.000001
0
VERTEX
8
RUN_LAYER
10
48674
20
431557
30
0
40
0.000001
41
0.000001
0
VERTEX
8
RUN_LAYER
10
48674
20
430199
30
0
40
0.000001
41
0.000001
0
VERTEX
8
RUN_LAYER
10
48675
20
428842
30
0
40
0.000001
41
0.000001
0
VERTEX
8
RUN_LAYER
10
48674
20
427484
30
0
40
0.000001
41
0.000001
0
VERTEX
8
RUN_LAYER
10
48675
20
426126
30
0
40
0.000001
41
0.000001
0
VERTEX
8
RUN_LAYER
10
48675
20
424768
30
0
40
0.000001
41
0.000001
0
VERTEX
8
RUN_LAYER
10
48676
20
423411
30
0
40
0.000001
41
0.000001
0
SEQEND
0
POLYLINE
8
RUN_LAYER
62
1
40
0.000001
70
0
41
0.000001
66
1
0
VERTEX
8
RUN_LAYER
10
52307
20
439703
30
0
40
0.000001
41
0.000001
0
VERTEX
8
RUN_LAYER
10
52308
20
438346
30
0
40
0.000001
41
0.000001
0
VERTEX
8
RUN_LAYER
10
52307
20
436988
30
0
40
0.000001
41
0.000001
0
VERTEX
8
RUN_LAYER
10
52308
20
435631
30
0
40
0.000001
41
0.000001
0
VERTEX
8
RUN_LAYER
10
52308
20
434272
30
0
40
0.000001
41
0.000001
0
VERTEX
8
RUN_LAYER
10
52308
20
432915
30
0
40
0.000001
41
0.000001
0
VERTEX
8
RUN_LAYER
10
52308
20
431557
30
0
40
0.000001
41
0.000001
0
VERTEX
8
RUN_LAYER
10
52309
20
430200
30
0
40
0.000001
41
0.000001
0
VERTEX
8
RUN_LAYER
10
52308
20
428842
30
0
40
0.000001
41
0.000001
0
VERTEX
8
RUN_LAYER
10
52309
20
427484
30
0
40
0.000001
41
0.000001
0
VERTEX
8
RUN_LAYER
10
52309
20
426126
30
0
40
0.000001
41
0.000001
0
VERTEX
8
RUN_LAYER
10
52309
20
424769
30
0
40
0.000001
41
0.000001
0
VERTEX
8
RUN_LAYER
10
52309
20
423411
30
0
40
0.000001
41
0.000001
0
SEQEND
0
POLYLINE
8
RUN_LAYER
62
1
40
0.000001
70
0
41
0.000001
66
1
0
VERTEX
8
RUN_LAYER
10
55941
20
446491
30
0
40
0.000001
41
0.000001
0
VERTEX
8
RUN_LAYER
10
55942
20
445134
30
0
40
0.000001
41
0.000001
0
VERTEX
8
RUN_LAYER
10
55941
20
443775
30
0
40
0.000001
41
0.000001
0
VERTEX
8
RUN_LAYER
10
55942
20
442418
30
0
40
0.000001
41
0.000001
0
VERTEX
8
RUN_LAYER
10
55942
20
441060
30
0
40
0.000001
41
0.000001
0
VERTEX
8
RUN_LAYER
10
55942
20
439703
30
0
40
0.000001
41
0.000001
0
VERTEX
8
RUN_LAYER
10
55942
20
438345
30
0
40
0.000001
41
0.000001
0
VERTEX
8
RUN_LAYER
10
55942
20
436988
30
0
40
0.000001
41
0.000001
0
VERTEX
8
RUN_LAYER
10
55942
20
435629
30
0
40
0.000001
41
0.000001
0
VERTEX
8
RUN_LAYER
10
55942
20
434272
30
0
40
0.000001
41
0.000001
0
VERTEX
8
RUN_LAYER
10
55943
20
432914
30
0
40
0.000001
41
0.000001
0
VERTEX
8
RUN_LAYER
10
55942
20
431557
30
0
40
0.000001
41
0.000001
0
VERTEX
8
RUN_LAYER
10
55943
20
430199
30
0
40
0.000001
41
0.000001
0
VERTEX
8
RUN_LAYER
10
55943
20
428841
30
0
40
0.000001
41
0.000001
0
VERTEX
8
RUN_LAYER
10
55943
20
427483
30
0
40
0.000001
41
0.000001
0
VERTEX
8
RUN_LAYER
10
55943
20
426126
30
0
40
0.000001
41
0.000001
0
SEQEND
0
POLYLINE
8
RUN_LAYER
62
1
40
0.000001
70
0
41
0.000001
66
1
0
VERTEX
8
RUN_LAYER
10
59576
20
449207
30
0
40
0.000001
41
0.000001
0
VERTEX
8
RUN_LAYER
10
59576
20
447850
30
0
40
0.000001
41
0.000001
0
VERTEX
8
RUN_LAYER
10
59576
20
446491
30
0
40
0.000001
41
0.000001
0
VERTEX
8
RUN_LAYER
10
59576
20
445134
30
0
40
0.000001
41
0.000001
0
VERTEX
8
RUN_LAYER
10
59576
20
443776
30
0
40
0.000001
41
0.000001
0
VERTEX
8
RUN_LAYER
10
59577
20
442419
30
0
40
0.000001
41
0.000001
0
VERTEX
8
RUN_LAYER
10
59576
20
441061
30
0
40
0.000001
41
0.000001
0
VERTEX
8
RUN_LAYER
10
59577
20
439704
30
0
40
0.000001
41
0.000001
0
VERTEX
8
RUN_LAYER
10
59577
20
438345
30
0
40
0.000001
41
0.000001
0
VERTEX
8
RUN_LAYER
10
59577
20
436988
30
0
40
0.000001
41
0.000001
0
VERTEX
8
RUN_LAYER
10
59577
20
435630
30
0
40
0.000001
41
0.000001
0
VERTEX
8
RUN_LAYER
10
59577
20
434273
30
0
40
0.000001
41
0.000001
0
VERTEX
8
RUN_LAYER
10
59577
20
432915
30
0
40
0.000001
41
0.000001
0
VERTEX
8
RUN_LAYER
10
59577
20
431558
30
0
40
0.000001
41
0.000001
0
VERTEX
8
RUN_LAYER
10
59578
20
430199
30
0
40
0.000001
41
0.000001
0
VERTEX
8
RUN_LAYER
10
59578
20
428842
30
0
40
0.000001
41
0.000001
0
VERTEX
8
RUN_LAYER
10
59578
20
427484
30
0
40
0.000001
41
0.000001
0
VERTEX
8
RUN_LAYER
10
59578
20
426127
30
0
40
0.000001
41
0.000001
0
SEQEND
0
POLYLINE
8
RUN_LAYER
62
1
40
0.000001
70
0
41
0.000001
66
1
0
VERTEX
8
RUN_LAYER
10
63210
20
447849
30
0
40
0.000001
41
0.000001
0
VERTEX
8
RUN_LAYER
10
63211
20
446492
30
0
40
0.000001
41
0.000001
0
VERTEX
8
RUN_LAYER
10
63210
20
445134
30
0
40
0.000001
41
0.000001
0
VERTEX
8
RUN_LAYER
10
63211
20
443777
30
0
40
0.000001
41
0.000001
0
VERTEX
8
RUN_LAYER
10
63210
20
442419
30
0
40
0.000001
41
0.000001
0
VERTEX
8
RUN_LAYER
10
63210
20
441061
30
0
40
0.000001
41
0.000001
0
VERTEX
8
RUN_LAYER
10
63210
20
439703
30
0
40
0.000001
41
0.000001
0
VERTEX
8
RUN_LAYER
10
63210
20
438346
30
0
40
0.000001
41
0.000001
0
VERTEX
8
RUN_LAYER
10
63210
20
436988
30
0
40
0.000001
41
0.000001
0
VERTEX
8
RUN_LAYER
10
63210
20
435631
30
0
40
0.000001
41
0.000001
0
VERTEX
8
RUN_LAYER
10
63210
20
434273
30
0
40
0.000001
41
0.000001
0
VERTEX
8
RUN_LAYER
10
63210
20
432916
30
0
40
0.000001
41
0.000001
0
VERTEX
8
RUN_LAYER
10
63210
20
431557
30
0
40
0.000001
41
0.000001
0
VERTEX
8
RUN_LAYER
10
63210
20
430200
30
0
40
0.000001
41
0.000001
0
VERTEX
8
RUN_LAYER
10
63209
20
428842
30
0
40
0.000001
41
0.000001
0
VERTEX
8
RUN_LAYER
10
63210
20
427485
30
0
40
0.000001
41
0.000001
0
VERTEX
8
RUN_LAYER
10
63209
20
426127
30
0
40
0.000001
41
0.000001
0
SEQEND
0
POLYLINE
8
fr_2_frame
40
0.000001
70
1
41
0.000001
66
1
0
VERTEX
8
fr_2_frame
10
46087
20
425108
30
0
40
0.000001
41
0.000001
0
VERTEX
8
fr_2_frame
10
51280
20
425110
30
0
40
0.000001
41
0.000001
0
VERTEX
8
fr_2_frame
10
51280
20
421715
30
0
40
0.000001
41
0.000001
0
VERTEX
8
fr_2_frame
10
46088
20
421713
30
0
40
0.000001
41
0.000001
0
VERTEX
8
fr_2_frame
10
46087
20
425108
30
0
40
0.000001
41
0.000001
0
SEQEND
0
POLYLINE
8
fr_2_frame
40
0.000001
70
1
41
0.000001
66
1
0
VERTEX
8
fr_2_frame
10
46145
20
426541
30
0
40
0.000001
41
0.000001
0
VERTEX
8
fr_2_frame
10
51335
20
426388
30
0
40
0.000001
41
0.000001
0
VERTEX
8
fr_2_frame
10
51235
20
422997
30
0
40
0.000001
41
0.000001
0
VERTEX
8
fr_2_frame
10
46046
20
423149
30
0
40
0.000001
41
0.000001
0
VERTEX
8
fr_2_frame
10
46145
20
426541
30
0
40
0.000001
41
0.000001
0
SEQEND
0
POLYLINE
8
fr_2_frame
40
0.000001
70
1
41
0.000001
66
1
0
VERTEX
8
fr_2_frame
10
46146
20
427867
30
0
40
0.000001
41
0.000001
0
VERTEX
8
fr_2_frame
10
51337
20
427779
30
0
40
0.000001
41
0.000001
0
VERTEX
8
fr_2_frame
10
51280
20
424385
30
0
40
0.000001
41
0.000001
0
VERTEX
8
fr_2_frame
10
46088
20
424474
30
0
40
0.000001
41
0.000001
0
VERTEX
8
fr_2_frame
10
46146
20
427867
30
0
40
0.000001
41
0.000001
0
SEQEND
0
POLYLINE
8
fr_2_frame
40
0.000001
70
1
41
0.000001
66
1
0
VERTEX
8
fr_2_frame
10
46086
20
429158
30
0
40
0.000001
41
0.000001
0
VERTEX
8
fr_2_frame
10
51278
20
429206
30
0
40
0.000001
41
0.000001
0
VERTEX
8
fr_2_frame
10
51309
20
425812
30
0
40
0.000001
41
0.000001
0
VERTEX
8
fr_2_frame
10
46117
20
425764
30
0
40
0.000001
41
0.000001
0
VERTEX
8
fr_2_frame
10
46086
20
429158
30
0
40
0.000001
41
0.000001
0
SEQEND
0
POLYLINE
8
fr_2_frame
40
0.000001
70
1
41
0.000001
66
1
0
VERTEX
8
fr_2_frame
10
46065
20
430524
30
0
40
0.000001
41
0.000001
0
VERTEX
8
fr_2_frame
10
51256
20
430554
30
0
40
0.000001
41
0.000001
0
VERTEX
8
fr_2_frame
10
51275
20
427160
30
0
40
0.000001
41
0.000001
0
VERTEX
8
fr_2_frame
10
46083
20
427130
30
0
40
0.000001
41
0.000001
0
VERTEX
8
fr_2_frame
10
46065
20
430524
30
0
40
0.000001
41
0.000001
0
SEQEND
0
POLYLINE
8
fr_2_frame
40
0.000001
70
1
41
0.000001
66
1
0
VERTEX
8
fr_2_frame
10
46097
20
431940
30
0
40
0.000001
41
0.000001
0
VERTEX
8
fr_2_frame
10
51289
20
431852
30
0
40
0.000001
41
0.000001
0
VERTEX
8
fr_2_frame
10
51232
20
428459
30
0
40
0.000001
41
0.000001
0
VERTEX
8
fr_2_frame
10
46040
20
428547
30
0
40
0.000001
41
0.000001
0
VERTEX
8
fr_2_frame
10
46097
20
431940
30
0
40
0.000001
41
0.000001
0
SEQEND
0
POLYLINE
8
fr_2_frame
40
0.000001
70
1
41
0.000001
66
1
0
VERTEX
8
fr_2_frame
10
46131
20
433324
30
0
40
0.000001
41
0.000001
0
VERTEX
8
fr_2_frame
10
51321
20
433182
30
0
40
0.000001
41
0.000001
0
VERTEX
8
fr_2_frame
10
51227
20
429790
30
0
40
0.000001
41
0.000001
0
VERTEX
8
fr_2_frame
10
46037
20
429932
30
0
40
0.000001
41
0.000001
0
VERTEX
8
fr_2_frame
10
46131
20
433324
30
0
40
0.000001
41
0.000001
0
SEQEND
0
POLYLINE
8
fr_2_frame
40
0.000001
70
1
41
0.000001
66
1
0
VERTEX
8
fr_2_frame
10
46139
20
434664
30
0
40
0.000001
41
0.000001
0
VERTEX
8
fr_2_frame
10
51330
20
434558
30
0
40
0.000001
41
0.000001
0
VERTEX
8
fr_2_frame
10
51260
20
431165
30
0
40
0.000001
41
0.000001
0
VERTEX
8
fr_2_frame
10
46069
20
431271
30
0
40
0.000001
41
0.000001
0
VERTEX
8
fr_2_frame
10
46139
20
434664
30
0
40
0.000001
41
0.000001
0
SEQEND
0
POLYLINE
8
fr_2_frame
40
0.000001
70
1
41
0.000001
66
1
0
VERTEX
8
fr_2_frame
10
54826
20
437914
30
0
40
0.000001
41
0.000001
0
VERTEX
8
fr_2_frame
10
49638
20
438102
30
0
40
0.000001
41
0.000001
0
VERTEX
8
fr_2_frame
10
49761
20
441493
30
0
40
0.000001
41
0.000001
0
VERTEX
8
fr_2_frame
10
54949
20
441305
30
0
40
0.000001
41
0.000001
0
VERTEX
8
fr_2_frame
10
54826
20
437914
30
0
40
0.000001
41
0.000001
0
SEQEND
0
POLYLINE
8
fr_2_frame
40
0.000001
70
1
41
0.000001
66
1
0
VERTEX
8
fr_2_frame
10
54813
20
436579
30
0
40
0.000001
41
0.000001
0
VERTEX
8
fr_2_frame
10
49623
20
436722
30
0
40
0.000001
41
0.000001
0
VERTEX
8
fr_2_frame
10
49717
20
440114
30
0
40
0.000001
41
0.000001
0
VERTEX
8
fr_2_frame
10
54906
20
439971
30
0
40
0.000001
41
0.000001
0
VERTEX
8
fr_2_frame
10
54813
20
436579
30
0
40
0.000001
41
0.000001
0
SEQEND
0
POLYLINE
8
fr_2_frame
40
0.000001
70
1
41
0.000001
66
1
0
VERTEX
8
fr_2_frame
10
54813
20
435239
30
0
40
0.000001
41
0.000001
0
VERTEX
8
fr_2_frame
10
49622
20
435345
30
0
40
0.000001
41
0.000001
0
VERTEX
8
fr_2_frame
10
49691
20
438738
30
0
40
0.000001
41
0.000001
0
VERTEX
8
fr_2_frame
10
54882
20
438632
30
0
40
0.000001
41
0.000001
0
VERTEX
8
fr_2_frame
10
54813
20
435239
30
0
40
0.000001
41
0.000001
0
SEQEND
0
POLYLINE
8
fr_2_frame
40
0.000001
70
1
41
0.000001
66
1
0
VERTEX
8
fr_2_frame
10
54814
20
433895
30
0
40
0.000001
41
0.000001
0
VERTEX
8
fr_2_frame
10
49622
20
433975
30
0
40
0.000001
41
0.000001
0
VERTEX
8
fr_2_frame
10
49673
20
437369
30
0
40
0.000001
41
0.000001
0
VERTEX
8
fr_2_frame
10
54865
20
437288
30
0
40
0.000001
41
0.000001
0
VERTEX
8
fr_2_frame
10
54814
20
433895
30
0
40
0.000001
41
0.000001
0
SEQEND
0
POLYLINE
8
fr_2_frame
40
0.000001
70
1
41
0.000001
66
1
0
VERTEX
8
fr_2_frame
10
54821
20
432550
30
0
40
0.000001
41
0.000001
0
VERTEX
8
fr_2_frame
10
49630
20
432603
30
0
40
0.000001
41
0.000001
0
VERTEX
8
fr_2_frame
10
49665
20
435997
30
0
40
0.000001
41
0.000001
0
VERTEX
8
fr_2_frame
10
54856
20
435944
30
0
40
0.000001
41
0.000001
0
VERTEX
8
fr_2_frame
10
54821
20
432550
30
0
40
0.000001
41
0.000001
0
SEQEND
0
POLYLINE
8
fr_2_frame
40
0.000001
70
1
41
0.000001
66
1
0
VERTEX
8
fr_2_frame
10
54827
20
431197
30
0
40
0.000001
41
0.000001
0
VERTEX
8
fr_2_frame
10
49636
20
431241
30
0
40
0.000001
41
0.000001
0
VERTEX
8
fr_2_frame
10
49666
20
434635
30
0
40
0.000001
41
0.000001
0
VERTEX
8
fr_2_frame
10
54857
20
434591
30
0
40
0.000001
41
0.000001
0
VERTEX
8
fr_2_frame
10
54827
20
431197
30
0
40
0.000001
41
0.000001
0
SEQEND
0
POLYLINE
8
fr_2_frame
40
0.000001
70
1
41
0.000001
66
1
0
VERTEX
8
fr_2_frame
10
54855
20
429861
30
0
40
0.000001
41
0.000001
0
VERTEX
8
fr_2_frame
10
49662
20
429859
30
0
40
0.000001
41
0.000001
0
VERTEX
8
fr_2_frame
10
49661
20
433254
30
0
40
0.000001
41
0.000001
0
VERTEX
8
fr_2_frame
10
54854
20
433256
30
0
40
0.000001
41
0.000001
0
VERTEX
8
fr_2_frame
10
54855
20
429861
30
0
40
0.000001
41
0.000001
0
SEQEND
0
POLYLINE
8
fr_2_frame
40
0.000001
70
1
41
0.000001
66
1
0
VERTEX
8
fr_2_frame
10
54890
20
428522
30
0
40
0.000001
41
0.000001
0
VERTEX
8
fr_2_frame
10
49698
20
428484
30
0
40
0.000001
41
0.000001
0
VERTEX
8
fr_2_frame
10
49673
20
431878
30
0
40
0.000001
41
0.000001
0
VERTEX
8
fr_2_frame
10
54865
20
431915
30
0
40
0.000001
41
0.000001
0
VERTEX
8
fr_2_frame
10
54890
20
428522
30
0
40
0.000001
41
0.000001
0
SEQEND
0
POLYLINE
8
fr_2_frame
40
0.000001
70
1
41
0.000001
66
1
0
VERTEX
8
fr_2_frame
10
54910
20
427160
30
0
40
0.000001
41
0.000001
0
VERTEX
8
fr_2_frame
10
49719
20
427130
30
0
40
0.000001
41
0.000001
0
VERTEX
8
fr_2_frame
10
49700
20
430524
30
0
40
0.000001
41
0.000001
0
VERTEX
8
fr_2_frame
10
54891
20
430553
30
0
40
0.000001
41
0.000001
0
VERTEX
8
fr_2_frame
10
54910
20
427160
30
0
40
0.000001
41
0.000001
0
SEQEND
0
POLYLINE
8
fr_2_frame
40
0.000001
70
1
41
0.000001
66
1
0
VERTEX
8
fr_2_frame
10
54927
20
425792
30
0
40
0.000001
41
0.000001
0
VERTEX
8
fr_2_frame
10
49736
20
425780
30
0
40
0.000001
41
0.000001
0
VERTEX
8
fr_2_frame
10
49730
20
429173
30
0
40
0.000001
41
0.000001
0
VERTEX
8
fr_2_frame
10
54921
20
429185
30
0
40
0.000001
41
0.000001
0
VERTEX
8
fr_2_frame
10
54927
20
425792
30
0
40
0.000001
41
0.000001
0
SEQEND
0
POLYLINE
8
fr_2_frame
40
0.000001
70
1
41
0.000001
66
1
0
VERTEX
8
fr_2_frame
10
54928
20
424412
30
0
40
0.000001
41
0.000001
0
VERTEX
8
fr_2_frame
10
49737
20
424446
30
0
40
0.000001
41
0.000001
0
VERTEX
8
fr_2_frame
10
49760
20
427840
30
0
40
0.000001
41
0.000001
0
VERTEX
8
fr_2_frame
10
54951
20
427806
30
0
40
0.000001
41
0.000001
0
VERTEX
8
fr_2_frame
10
54928
20
424412
30
0
40
0.000001
41
0.000001
0
SEQEND
0
POLYLINE
8
fr_2_frame
40
0.000001
70
1
41
0.000001
66
1
0
VERTEX
8
fr_2_frame
10
54902
20
423018
30
0
40
0.000001
41
0.000001
0
VERTEX
8
fr_2_frame
10
49711
20
423125
30
0
40
0.000001
41
0.000001
0
VERTEX
8
fr_2_frame
10
49781
20
426517
30
0
40
0.000001
41
0.000001
0
VERTEX
8
fr_2_frame
10
54972
20
426411
30
0
40
0.000001
41
0.000001
0
VERTEX
8
fr_2_frame
10
54902
20
423018
30
0
40
0.000001
41
0.000001
0
SEQEND
0
POLYLINE
8
fr_2_frame
40
0.000001
70
1
41
0.000001
66
1
0
VERTEX
8
fr_2_frame
10
54895
20
421664
30
0
40
0.000001
41
0.000001
0
VERTEX
8
fr_2_frame
10
49704
20
421762
30
0
40
0.000001
41
0.000001
0
VERTEX
8
fr_2_frame
10
49767
20
425155
30
0
40
0.000001
41
0.000001
0
VERTEX
8
fr_2_frame
10
54958
20
425056
30
0
40
0.000001
41
0.000001
0
VERTEX
8
fr_2_frame
10
54895
20
421664
30
0
40
0.000001
41
0.000001
0
SEQEND
0
POLYLINE
8
fr_2_frame
40
0.000001
70
1
41
0.000001
66
1
0
VERTEX
8
fr_2_frame
10
53456
20
427911
30
0
40
0.000001
41
0.000001
0
VERTEX
8
fr_2_frame
10
58644
20
427731
30
0
40
0.000001
41
0.000001
0
VERTEX
8
fr_2_frame
10
58527
20
424340
30
0
40
0.000001
41
0.000001
0
VERTEX
8
fr_2_frame
10
53338
20
424520
30
0
40
0.000001
41
0.000001
0
VERTEX
8
fr_2_frame
10
53456
20
427911
30
0
40
0.000001
41
0.000001
0
SEQEND
0
POLYLINE
8
fr_2_frame
40
0.000001
70
1
41
0.000001
66
1
0
VERTEX
8
fr_2_frame
10
53378
20
429156
30
0
40
0.000001
41
0.000001
0
VERTEX
8
fr_2_frame
10
58570
20
429204
30
0
40
0.000001
41
0.000001
0
VERTEX
8
fr_2_frame
10
58601
20
425810
30
0
40
0.000001
41
0.000001
0
VERTEX
8
fr_2_frame
10
53409
20
425762
30
0
40
0.000001
41
0.000001
0
VERTEX
8
fr_2_frame
10
53378
20
429156
30
0
40
0.000001
41
0.000001
0
SEQEND
0
POLYLINE
8
fr_2_frame
40
0.000001
70
1
41
0.000001
66
1
0
VERTEX
8
fr_2_frame
10
53358
20
430528
30
0
40
0.000001
41
0.000001
0
VERTEX
8
fr_2_frame
10
58549
20
430547
30
0
40
0.000001
41
0.000001
0
VERTEX
8
fr_2_frame
10
58562
20
427154
30
0
40
0.000001
41
0.000001
0
VERTEX
8
fr_2_frame
10
53371
20
427134
30
0
40
0.000001
41
0.000001
0
VERTEX
8
fr_2_frame
10
53358
20
430528
30
0
40
0.000001
41
0.000001
0
SEQEND
0
POLYLINE
8
fr_2_frame
40
0.000001
70
1
41
0.000001
66
1
0
VERTEX
8
fr_2_frame
10
53404
20
431956
30
0
40
0.000001
41
0.000001
0
VERTEX
8
fr_2_frame
10
58595
20
431832
30
0
40
0.000001
41
0.000001
0
VERTEX
8
fr_2_frame
10
58513
20
428440
30
0
40
0.000001
41
0.000001
0
VERTEX
8
fr_2_frame
10
53323
20
428564
30
0
40
0.000001
41
0.000001
0
VERTEX
8
fr_2_frame
10
53404
20
431956
30
0
40
0.000001
41
0.000001
0
SEQEND
0
POLYLINE
8
fr_2_frame
40
0.000001
70
1
41
0.000001
66
1
0
VERTEX
8
fr_2_frame
10
53433
20
433324
30
0
40
0.000001
41
0.000001
0
VERTEX
8
fr_2_frame
10
58623
20
433181
30
0
40
0.000001
41
0.000001
0
VERTEX
8
fr_2_frame
10
58530
20
429789
30
0
40
0.000001
41
0.000001
0
VERTEX
8
fr_2_frame
10
53340
20
429932
30
0
40
0.000001
41
0.000001
0
VERTEX
8
fr_2_frame
10
53433
20
433324
30
0
40
0.000001
41
0.000001
0
SEQEND
0
POLYLINE
8
fr_2_frame
40
0.000001
70
1
41
0.000001
66
1
0
VERTEX
8
fr_2_frame
10
53383
20
434605
30
0
40
0.000001
41
0.000001
0
VERTEX
8
fr_2_frame
10
58574
20
434617
30
0
40
0.000001
41
0.000001
0
VERTEX
8
fr_2_frame
10
58581
20
431224
30
0
40
0.000001
41
0.000001
0
VERTEX
8
fr_2_frame
10
53390
20
431212
30
0
40
0.000001
41
0.000001
0
VERTEX
8
fr_2_frame
10
53383
20
434605
30
0
40
0.000001
41
0.000001
0
SEQEND
0
POLYLINE
8
fr_2_frame
40
0.000001
70
1
41
0.000001
66
1
0
VERTEX
8
fr_2_frame
10
53309
20
435906
30
0
40
0.000001
41
0.000001
0
VERTEX
8
fr_2_frame
10
58499
20
436034
30
0
40
0.000001
41
0.000001
0
VERTEX
8
fr_2_frame
10
58584
20
432640
30
0
40
0.000001
41
0.000001
0
VERTEX
8
fr_2_frame
10
53393
20
432512
30
0
40
0.000001
41
0.000001
0
VERTEX
8
fr_2_frame
10
53309
20
435906
30
0
40
0.000001
41
0.000001
0
SEQEND
0
POLYLINE
8
fr_2_frame
40
0.000001
70
1
41
0.000001
66
1
0
VERTEX
8
fr_2_frame
10
53295
20
437308
30
0
40
0.000001
41
0.000001
0
VERTEX
8
fr_2_frame
10
58486
20
437345
30
0
40
0.000001
41
0.000001
0
VERTEX
8
fr_2_frame
10
58511
20
433952
30
0
40
0.000001
41
0.000001
0
VERTEX
8
fr_2_frame
10
53319
20
433914
30
0
40
0.000001
41
0.000001
0
VERTEX
8
fr_2_frame
10
53295
20
437308
30
0
40
0.000001
41
0.000001
0
SEQEND
0
POLYLINE
8
fr_2_frame
40
0.000001
70
1
41
0.000001
66
1
0
VERTEX
8
fr_2_frame
10
53341
20
438746
30
0
40
0.000001
41
0.000001
0
VERTEX
8
fr_2_frame
10
58531
20
438622
30
0
40
0.000001
41
0.000001
0
VERTEX
8
fr_2_frame
10
58450
20
435230
30
0
40
0.000001
41
0.000001
0
VERTEX
8
fr_2_frame
10
53259
20
435354
30
0
40
0.000001
41
0.000001
0
VERTEX
8
fr_2_frame
10
53341
20
438746
30
0
40
0.000001
41
0.000001
0
SEQEND
0
POLYLINE
8
fr_2_frame
40
0.000001
70
1
41
0.000001
66
1
0
VERTEX
8
fr_2_frame
10
53399
20
440141
30
0
40
0.000001
41
0.000001
0
VERTEX
8
fr_2_frame
10
58587
20
439942
30
0
40
0.000001
41
0.000001
0
VERTEX
8
fr_2_frame
10
58457
20
436552
30
0
40
0.000001
41
0.000001
0
VERTEX
8
fr_2_frame
10
53269
20
436750
30
0
40
0.000001
41
0.000001
0
VERTEX
8
fr_2_frame
10
53399
20
440141
30
0
40
0.000001
41
0.000001
0
SEQEND
0
POLYLINE
8
fr_2_frame
40
0.000001
70
1
41
0.000001
66
1
0
VERTEX
8
fr_2_frame
10
53378
20
441441
30
0
40
0.000001
41
0.000001
0
VERTEX
8
fr_2_frame
10
58570
20
441360
30
0
40
0.000001
41
0.000001
0
VERTEX
8
fr_2_frame
10
58519
20
437967
30
0
40
0.000001
41
0.000001
0
VERTEX
8
fr_2_frame
10
53327
20
438047
30
0
40
0.000001
41
0.000001
0
VERTEX
8
fr_2_frame
10
53378
20
441441
30
0
40
0.000001
41
0.000001
0
SEQEND
0
POLYLINE
8
fr_2_frame
40
0.000001
70
1
41
0.000001
66
1
0
VERTEX
8
fr_2_frame
10
53305
20
442711
30
0
40
0.000001
41
0.000001
0
VERTEX
8
fr_2_frame
10
58497
20
442803
30
0
40
0.000001
41
0.000001
0
VERTEX
8
fr_2_frame
10
58557
20
439410
30
0
40
0.000001
41
0.000001
0
VERTEX
8
fr_2_frame
10
53366
20
439318
30
0
40
0.000001
41
0.000001
0
VERTEX
8
fr_2_frame
10
53305
20
442711
30
0
40
0.000001
41
0.000001
0
SEQEND
0
POLYLINE
8
fr_2_frame
40
0.000001
70
1
41
0.000001
66
1
0
VERTEX
8
fr_2_frame
10
53326
20
444143
30
0
40
0.000001
41
0.000001
0
VERTEX
8
fr_2_frame
10
58517
20
444090
30
0
40
0.000001
41
0.000001
0
VERTEX
8
fr_2_frame
10
58481
20
440696
30
0
40
0.000001
41
0.000001
0
VERTEX
8
fr_2_frame
10
53291
20
440749
30
0
40
0.000001
41
0.000001
0
VERTEX
8
fr_2_frame
10
53326
20
444143
30
0
40
0.000001
41
0.000001
0
SEQEND
0
POLYLINE
8
fr_2_frame
40
0.000001
70
1
41
0.000001
66
1
0
VERTEX
8
fr_2_frame
10
53383
20
445562
30
0
40
0.000001
41
0.000001
0
VERTEX
8
fr_2_frame
10
58571
20
445381
30
0
40
0.000001
41
0.000001
0
VERTEX
8
fr_2_frame
10
58454
20
441990
30
0
40
0.000001
41
0.000001
0
VERTEX
8
fr_2_frame
10
53265
20
442171
30
0
40
0.000001
41
0.000001
0
VERTEX
8
fr_2_frame
10
53383
20
445562
30
0
40
0.000001
41
0.000001
0
SEQEND
0
POLYLINE
8
fr_2_frame
40
0.000001
70
1
41
0.000001
66
1
0
VERTEX
8
fr_2_frame
10
53415
20
446919
30
0
40
0.000001
41
0.000001
0
VERTEX
8
fr_2_frame
10
58604
20
446739
30
0
40
0.000001
41
0.000001
0
VERTEX
8
fr_2_frame
10
58486
20
443347
30
0
40
0.000001
41
0.000001
0
VERTEX
8
fr_2_frame
10
53298
20
443528
30
0
40
0.000001
41
0.000001
0
VERTEX
8
fr_2_frame
10
53415
20
446919
30
0
40
0.000001
41
0.000001
0
SEQEND
0
POLYLINE
8
fr_2_frame
40
0.000001
70
1
41
0.000001
66
1
0
VERTEX
8
fr_2_frame
10
53394
20
448223
30
0
40
0.000001
41
0.000001
0
VERTEX
8
fr_2_frame
10
58586
20
448152
30
0
40
0.000001
41
0.000001
0
VERTEX
8
fr_2_frame
10
58541
20
444759
30
0
40
0.000001
41
0.000001
0
VERTEX
8
fr_2_frame
10
53349
20
444829
30
0
40
0.000001
41
0.000001
0
VERTEX
8
fr_2_frame
10
53394
20
448223
30
0
40
0.000001
41
0.000001
0
SEQEND
0
POLYLINE
8
fr_2_frame
40
0.000001
70
1
41
0.000001
66
1
0
VERTEX
8
fr_2_frame
10
62105
20
447475
30
0
40
0.000001
41
0.000001
0
VERTEX
8
fr_2_frame
10
56913
20
447546
30
0
40
0.000001
41
0.000001
0
VERTEX
8
fr_2_frame
10
56958
20
450939
30
0
40
0.000001
41
0.000001
0
VERTEX
8
fr_2_frame
10
62151
20
450869
30
0
40
0.000001
41
0.000001
0
VERTEX
8
fr_2_frame
10
62105
20
447475
30
0
40
0.000001
41
0.000001
0
SEQEND
0
POLYLINE
8
fr_2_frame
40
0.000001
70
1
41
0.000001
66
1
0
VERTEX
8
fr_2_frame
10
62107
20
446122
30
0
40
0.000001
41
0.000001
0
VERTEX
8
fr_2_frame
10
56916
20
446184
30
0
40
0.000001
41
0.000001
0
VERTEX
8
fr_2_frame
10
56956
20
449578
30
0
40
0.000001
41
0.000001
0
VERTEX
8
fr_2_frame
10
62146
20
449516
30
0
40
0.000001
41
0.000001
0
VERTEX
8
fr_2_frame
10
62107
20
446122
30
0
40
0.000001
41
0.000001
0
SEQEND
0
POLYLINE
8
fr_2_frame
40
0.000001
70
1
41
0.000001
66
1
0
VERTEX
8
fr_2_frame
10
62120
20
444777
30
0
40
0.000001
41
0.000001
0
VERTEX
8
fr_2_frame
10
56929
20
444812
30
0
40
0.000001
41
0.000001
0
VERTEX
8
fr_2_frame
10
56953
20
448206
30
0
40
0.000001
41
0.000001
0
VERTEX
8
fr_2_frame
10
62144
20
448171
30
0
40
0.000001
41
0.000001
0
VERTEX
8
fr_2_frame
10
62120
20
444777
30
0
40
0.000001
41
0.000001
0
SEQEND
0
POLYLINE
8
fr_2_frame
40
0.000001
70
1
41
0.000001
66
1
0
VERTEX
8
fr_2_frame
10
62109
20
443394
30
0
40
0.000001
41
0.000001
0
VERTEX
8
fr_2_frame
10
56917
20
443482
30
0
40
0.000001
41
0.000001
0
VERTEX
8
fr_2_frame
10
56975
20
446875
30
0
40
0.000001
41
0.000001
0
VERTEX
8
fr_2_frame
10
62166
20
446787
30
0
40
0.000001
41
0.000001
0
VERTEX
8
fr_2_frame
10
62109
20
443394
30
0
40
0.000001
41
0.000001
0
SEQEND
0
POLYLINE
8
fr_2_frame
40
0.000001
70
1
41
0.000001
66
1
0
VERTEX
8
fr_2_frame
10
62102
20
442036
30
0
40
0.000001
41
0.000001
0
VERTEX
8
fr_2_frame
10
56911
20
442124
30
0
40
0.000001
41
0.000001
0
VERTEX
8
fr_2_frame
10
56968
20
445517
30
0
40
0.000001
41
0.000001
0
VERTEX
8
fr_2_frame
10
62160
20
445429
30
0
40
0.000001
41
0.000001
0
VERTEX
8
fr_2_frame
10
62102
20
442036
30
0
40
0.000001
41
0.000001
0
SEQEND
0
POLYLINE
8
fr_2_frame
40
0.000001
70
1
41
0.000001
66
1
0
VERTEX
8
fr_2_frame
10
62090
20
440670
30
0
40
0.000001
41
0.000001
0
VERTEX
8
fr_2_frame
10
56899
20
440776
30
0
40
0.000001
41
0.000001
0
VERTEX
8
fr_2_frame
10
56968
20
444169
30
0
40
0.000001
41
0.000001
0
VERTEX
8
fr_2_frame
10
62159
20
444063
30
0
40
0.000001
41
0.000001
0
VERTEX
8
fr_2_frame
10
62090
20
440670
30
0
40
0.000001
41
0.000001
0
SEQEND
0
POLYLINE
8
fr_2_frame
40
0.000001
70
1
41
0.000001
66
1
0
VERTEX
8
fr_2_frame
10
62102
20
439338
30
0
40
0.000001
41
0.000001
0
VERTEX
8
fr_2_frame
10
56911
20
439391
30
0
40
0.000001
41
0.000001
0
VERTEX
8
fr_2_frame
10
56947
20
442785
30
0
40
0.000001
41
0.000001
0
VERTEX
8
fr_2_frame
10
62137
20
442732
30
0
40
0.000001
41
0.000001
0
VERTEX
8
fr_2_frame
10
62102
20
439338
30
0
40
0.000001
41
0.000001
0
SEQEND
0
POLYLINE
8
fr_2_frame
40
0.000001
70
1
41
0.000001
66
1
0
VERTEX
8
fr_2_frame
10
62138
20
438013
30
0
40
0.000001
41
0.000001
0
VERTEX
8
fr_2_frame
10
56948
20
438001
30
0
40
0.000001
41
0.000001
0
VERTEX
8
fr_2_frame
10
56941
20
441395
30
0
40
0.000001
41
0.000001
0
VERTEX
8
fr_2_frame
10
62132
20
441406
30
0
40
0.000001
41
0.000001
0
VERTEX
8
fr_2_frame
10
62138
20
438013
30
0
40
0.000001
41
0.000001
0
SEQEND
0
POLYLINE
8
fr_2_frame
40
0.000001
70
1
41
0.000001
66
1
0
VERTEX
8
fr_2_frame
10
62132
20
436627
30
0
40
0.000001
41
0.000001
0
VERTEX
8
fr_2_frame
10
56941
20
436671
30
0
40
0.000001
41
0.000001
0
VERTEX
8
fr_2_frame
10
56970
20
440065
30
0
40
0.000001
41
0.000001
0
VERTEX
8
fr_2_frame
10
62161
20
440021
30
0
40
0.000001
41
0.000001
0
VERTEX
8
fr_2_frame
10
62132
20
436627
30
0
40
0.000001
41
0.000001
0
SEQEND
0
POLYLINE
8
fr_2_frame
40
0.000001
70
1
41
0.000001
66
1
0
VERTEX
8
fr_2_frame
10
62156
20
435288
30
0
40
0.000001
41
0.000001
0
VERTEX
8
fr_2_frame
10
56964
20
435295
30
0
40
0.000001
41
0.000001
0
VERTEX
8
fr_2_frame
10
56969
20
438689
30
0
40
0.000001
41
0.000001
0
VERTEX
8
fr_2_frame
10
62161
20
438683
30
0
40
0.000001
41
0.000001
0
VERTEX
8
fr_2_frame
10
62156
20
435288
30
0
40
0.000001
41
0.000001
0
SEQEND
0
POLYLINE
8
fr_2_frame
40
0.000001
70
1
41
0.000001
66
1
0
VERTEX
8
fr_2_frame
10
62170
20
433924
30
0
40
0.000001
41
0.000001
0
VERTEX
8
fr_2_frame
10
56978
20
433940
30
0
40
0.000001
41
0.000001
0
VERTEX
8
fr_2_frame
10
56990
20
437334
30
0
40
0.000001
41
0.000001
0
VERTEX
8
fr_2_frame
10
62182
20
437318
30
0
40
0.000001
41
0.000001
0
VERTEX
8
fr_2_frame
10
62170
20
433924
30
0
40
0.000001
41
0.000001
0
SEQEND
0
POLYLINE
8
fr_2_frame
40
0.000001
70
1
41
0.000001
66
1
0
VERTEX
8
fr_2_frame
10
62181
20
432563
30
0
40
0.000001
41
0.000001
0
VERTEX
8
fr_2_frame
10
56989
20
432589
30
0
40
0.000001
41
0.000001
0
VERTEX
8
fr_2_frame
10
57006
20
435984
30
0
40
0.000001
41
0.000001
0
VERTEX
8
fr_2_frame
10
62198
20
435957
30
0
40
0.000001
41
0.000001
0
VERTEX
8
fr_2_frame
10
62181
20
432563
30
0
40
0.000001
41
0.000001
0
SEQEND
0
POLYLINE
8
fr_2_frame
40
0.000001
70
1
41
0.000001
66
1
0
VERTEX
8
fr_2_frame
10
62195
20
431209
30
0
40
0.000001
41
0.000001
0
VERTEX
8
fr_2_frame
10
57003
20
431226
30
0
40
0.000001
41
0.000001
0
VERTEX
8
fr_2_frame
10
57015
20
434620
30
0
40
0.000001
41
0.000001
0
VERTEX
8
fr_2_frame
10
62207
20
434604
30
0
40
0.000001
41
0.000001
0
VERTEX
8
fr_2_frame
10
62195
20
431209
30
0
40
0.000001
41
0.000001
0
SEQEND
0
POLYLINE
8
fr_2_frame
40
0.000001
70
1
41
0.000001
66
1
0
VERTEX
8
fr_2_frame
10
62159
20
429800
30
0
40
0.000001
41
0.000001
0
VERTEX
8
fr_2_frame
10
56969
20
429925
30
0
40
0.000001
41
0.000001
0
VERTEX
8
fr_2_frame
10
57050
20
433317
30
0
40
0.000001
41
0.000001
0
VERTEX
8
fr_2_frame
10
62240
20
433193
30
0
40
0.000001
41
0.000001
0
VERTEX
8
fr_2_frame
10
62159
20
429800
30
0
40
0.000001
41
0.000001
0
SEQEND
0
POLYLINE
8
fr_2_frame
40
0.000001
70
1
41
0.000001
66
1
0
VERTEX
8
fr_2_frame
10
62140
20
428441
30
0
40
0.000001
41
0.000001
0
VERTEX
8
fr_2_frame
10
56950
20
428565
30
0
40
0.000001
41
0.000001
0
VERTEX
8
fr_2_frame
10
57031
20
431957
30
0
40
0.000001
41
0.000001
0
VERTEX
8
fr_2_frame
10
62222
20
431833
30
0
40
0.000001
41
0.000001
0
VERTEX
8
fr_2_frame
10
62140
20
428441
30
0
40
0.000001
41
0.000001
0
SEQEND
0
POLYLINE
8
fr_2_frame
40
0.000001
70
1
41
0.000001
66
1
0
VERTEX
8
fr_2_frame
10
62155
20
427110
30
0
40
0.000001
41
0.000001
0
VERTEX
8
fr_2_frame
10
56963
20
427181
30
0
40
0.000001
41
0.000001
0
VERTEX
8
fr_2_frame
10
57008
20
430574
30
0
40
0.000001
41
0.000001
0
VERTEX
8
fr_2_frame
10
62200
20
430504
30
0
40
0.000001
41
0.000001
0
VERTEX
8
fr_2_frame
10
62155
20
427110
30
0
40
0.000001
41
0.000001
0
SEQEND
0
POLYLINE
8
fr_2_frame
40
0.000001
70
1
41
0.000001
66
1
0
VERTEX
8
fr_2_frame
10
62146
20
425743
30
0
40
0.000001
41
0.000001
0
VERTEX
8
fr_2_frame
10
56954
20
425832
30
0
40
0.000001
41
0.000001
0
VERTEX
8
fr_2_frame
10
57012
20
429225
30
0
40
0.000001
41
0.000001
0
VERTEX
8
fr_2_frame
10
62203
20
429136
30
0
40
0.000001
41
0.000001
0
VERTEX
8
fr_2_frame
10
62146
20
425743
30
0
40
0.000001
41
0.000001
0
SEQEND
0
POLYLINE
8
fr_2_frame
40
0.000001
70
1
41
0.000001
66
1
0
VERTEX
8
fr_2_frame
10
62145
20
424390
30
0
40
0.000001
41
0.000001
0
VERTEX
8
fr_2_frame
10
56953
20
424471
30
0
40
0.000001
41
0.000001
0
VERTEX
8
fr_2_frame
10
57004
20
427864
30
0
40
0.000001
41
0.000001
0
VERTEX
8
fr_2_frame
10
62196
20
427783
30
0
40
0.000001
41
0.000001
0
VERTEX
8
fr_2_frame
10
62145
20
424390
30
0
40
0.000001
41
0.000001
0
SEQEND
0
POLYLINE
8
fr_2_frame
40
0.000001
70
1
41
0.000001
66
1
0
VERTEX
8
fr_2_frame
10
60607
20
427796
30
0
40
0.000001
41
0.000001
0
VERTEX
8
fr_2_frame
10
65799
20
427851
30
0
40
0.000001
41
0.000001
0
VERTEX
8
fr_2_frame
10
65836
20
424457
30
0
40
0.000001
41
0.000001
0
VERTEX
8
fr_2_frame
10
60644
20
424401
30
0
40
0.000001
41
0.000001
0
VERTEX
8
fr_2_frame
10
60607
20
427796
30
0
40
0.000001
41
0.000001
0
SEQEND
0
POLYLINE
8
fr_2_frame
40
0.000001
70
1
41
0.000001
66
1
0
VERTEX
8
fr_2_frame
10
60579
20
429167
30
0
40
0.000001
41
0.000001
0
VERTEX
8
fr_2_frame
10
65770
20
429196
30
0
40
0.000001
41
0.000001
0
VERTEX
8
fr_2_frame
10
65789
20
425803
30
0
40
0.000001
41
0.000001
0
VERTEX
8
fr_2_frame
10
60598
20
425773
30
0
40
0.000001
41
0.000001
0
VERTEX
8
fr_2_frame
10
60579
20
429167
30
0
40
0.000001
41
0.000001
0
SEQEND
0
POLYLINE
8
fr_2_frame
40
0.000001
70
1
41
0.000001
66
1
0
VERTEX
8
fr_2_frame
10
60646
20
430624
30
0
40
0.000001
41
0.000001
0
VERTEX
8
fr_2_frame
10
65835
20
430453
30
0
40
0.000001
41
0.000001
0
VERTEX
8
fr_2_frame
10
65723
20
427062
30
0
40
0.000001
41
0.000001
0
VERTEX
8
fr_2_frame
10
60534
20
427232
30
0
40
0.000001
41
0.000001
0
VERTEX
8
fr_2_frame
10
60646
20
430624
30
0
40
0.000001
41
0.000001
0
SEQEND
0
POLYLINE
8
fr_2_frame
40
0.000001
70
1
41
0.000001
66
1
0
VERTEX
8
fr_2_frame
10
60675
20
431986
30
0
40
0.000001
41
0.000001
0
VERTEX
8
fr_2_frame
10
65864
20
431806
30
0
40
0.000001
41
0.000001
0
VERTEX
8
fr_2_frame
10
65747
20
428415
30
0
40
0.000001
41
0.000001
0
VERTEX
8
fr_2_frame
10
60558
20
428595
30
0
40
0.000001
41
0.000001
0
VERTEX
8
fr_2_frame
10
60675
20
431986
30
0
40
0.000001
41
0.000001
0
SEQEND
0
POLYLINE
8
fr_2_frame
40
0.000001
70
1
41
0.000001
66
1
0
VERTEX
8
fr_2_frame
10
60659
20
433294
30
0
40
0.000001
41
0.000001
0
VERTEX
8
fr_2_frame
10
65851
20
433213
30
0
40
0.000001
41
0.000001
0
VERTEX
8
fr_2_frame
10
65800
20
429820
30
0
40
0.000001
41
0.000001
0
VERTEX
8
fr_2_frame
10
60608
20
429900
30
0
40
0.000001
41
0.000001
0
VERTEX
8
fr_2_frame
10
60659
20
433294
30
0
40
0.000001
41
0.000001
0
SEQEND
0
POLYLINE
8
fr_2_frame
40
0.000001
70
1
41
0.000001
66
1
0
VERTEX
8
fr_2_frame
10
60592
20
434576
30
0
40
0.000001
41
0.000001
0
VERTEX
8
fr_2_frame
10
65783
20
434650
30
0
40
0.000001
41
0.000001
0
VERTEX
8
fr_2_frame
10
65832
20
431255
30
0
40
0.000001
41
0.000001
0
VERTEX
8
fr_2_frame
10
60641
20
431181
30
0
40
0.000001
41
0.000001
0
VERTEX
8
fr_2_frame
10
60592
20
434576
30
0
40
0.000001
41
0.000001
0
SEQEND
0
POLYLINE
8
fr_2_frame
40
0.000001
70
1
41
0.000001
66
1
0
VERTEX
8
fr_2_frame
10
60552
20
435942
30
0
40
0.000001
41
0.000001
0
VERTEX
8
fr_2_frame
10
65744
20
435998
30
0
40
0.000001
41
0.000001
0
VERTEX
8
fr_2_frame
10
65781
20
432604
30
0
40
0.000001
41
0.000001
0
VERTEX
8
fr_2_frame
10
60589
20
432548
30
0
40
0.000001
41
0.000001
0
VERTEX
8
fr_2_frame
10
60552
20
435942
30
0
40
0.000001
41
0.000001
0
SEQEND
0
POLYLINE
8
fr_2_frame
40
0.000001
70
1
41
0.000001
66
1
0
VERTEX
8
fr_2_frame
10
60612
20
437395
30
0
40
0.000001
41
0.000001
0
VERTEX
8
fr_2_frame
10
65802
20
437260
30
0
40
0.000001
41
0.000001
0
VERTEX
8
fr_2_frame
10
65714
20
433868
30
0
40
0.000001
41
0.000001
0
VERTEX
8
fr_2_frame
10
60524
20
434003
30
0
40
0.000001
41
0.000001
0
VERTEX
8
fr_2_frame
10
60612
20
437395
30
0
40
0.000001
41
0.000001
0
SEQEND
0
POLYLINE
8
fr_2_frame
40
0.000001
70
1
41
0.000001
66
1
0
VERTEX
8
fr_2_frame
10
60650
20
438775
30
0
40
0.000001
41
0.000001
0
VERTEX
8
fr_2_frame
10
65839
20
438594
30
0
40
0.000001
41
0.000001
0
VERTEX
8
fr_2_frame
10
65721
20
435203
30
0
40
0.000001
41
0.000001
0
VERTEX
8
fr_2_frame
10
60533
20
435384
30
0
40
0.000001
41
0.000001
0
VERTEX
8
fr_2_frame
10
60650
20
438775
30
0
40
0.000001
41
0.000001
0
SEQEND
0
POLYLINE
8
fr_2_frame
40
0.000001
70
1
41
0.000001
66
1
0
VERTEX
8
fr_2_frame
10
60662
20
440113
30
0
40
0.000001
41
0.000001
0
VERTEX
8
fr_2_frame
10
65852
20
439971
30
0
40
0.000001
41
0.000001
0
VERTEX
8
fr_2_frame
10
65758
20
436579
30
0
40
0.000001
41
0.000001
0
VERTEX
8
fr_2_frame
10
60569
20
436721
30
0
40
0.000001
41
0.000001
0
VERTEX
8
fr_2_frame
10
60662
20
440113
30
0
40
0.000001
41
0.000001
0
SEQEND
0
POLYLINE
8
fr_2_frame
40
0.000001
70
1
41
0.000001
66
1
0
VERTEX
8
fr_2_frame
10
60659
20
441450
30
0
40
0.000001
41
0.000001
0
VERTEX
8
fr_2_frame
10
65850
20
441351
30
0
40
0.000001
41
0.000001
0
VERTEX
8
fr_2_frame
10
65787
20
437958
30
0
40
0.000001
41
0.000001
0
VERTEX
8
fr_2_frame
10
60596
20
438057
30
0
40
0.000001
41
0.000001
0
VERTEX
8
fr_2_frame
10
60659
20
441450
30
0
40
0.000001
41
0.000001
0
SEQEND
0
POLYLINE
8
fr_2_frame
40
0.000001
70
1
41
0.000001
66
1
0
VERTEX
8
fr_2_frame
10
60625
20
442767
30
0
40
0.000001
41
0.000001
0
VERTEX
8
fr_2_frame
10
65817
20
442750
30
0
40
0.000001
41
0.000001
0
VERTEX
8
fr_2_frame
10
65806
20
439356
30
0
40
0.000001
41
0.000001
0
VERTEX
8
fr_2_frame
10
60614
20
439372
30
0
40
0.000001
41
0.000001
0
VERTEX
8
fr_2_frame
10
60625
20
442767
30
0
40
0.000001
41
0.000001
0
SEQEND
0
POLYLINE
8
fr_2_frame
40
0.000001
70
1
41
0.000001
66
1
0
VERTEX
8
fr_2_frame
10
60588
20
444097
30
0
40
0.000001
41
0.000001
0
VERTEX
8
fr_2_frame
10
65779
20
444135
30
0
40
0.000001
41
0.000001
0
VERTEX
8
fr_2_frame
10
65804
20
440741
30
0
40
0.000001
41
0.000001
0
VERTEX
8
fr_2_frame
10
60612
20
440703
30
0
40
0.000001
41
0.000001
0
VERTEX
8
fr_2_frame
10
60588
20
444097
30
0
40
0.000001
41
0.000001
0
SEQEND
0
POLYLINE
8
fr_2_frame
40
0.000001
70
1
41
0.000001
66
1
0
VERTEX
8
fr_2_frame
10
60587
20
445491
30
0
40
0.000001
41
0.000001
0
VERTEX
8
fr_2_frame
10
65778
20
445457
30
0
40
0.000001
41
0.000001
0
VERTEX
8
fr_2_frame
10
65754
20
442063
30
0
40
0.000001
41
0.000001
0
VERTEX
8
fr_2_frame
10
60563
20
442097
30
0
40
0.000001
41
0.000001
0
VERTEX
8
fr_2_frame
10
60587
20
445491
30
0
40
0.000001
41
0.000001
0
SEQEND
0
POLYLINE
8
fr_2_frame
40
0.000001
70
1
41
0.000001
66
1
0
VERTEX
8
fr_2_frame
10
60638
20
446915
30
0
40
0.000001
41
0.000001
0
VERTEX
8
fr_2_frame
10
65827
20
446744
30
0
40
0.000001
41
0.000001
0
VERTEX
8
fr_2_frame
10
65716
20
443353
30
0
40
0.000001
41
0.000001
0
VERTEX
8
fr_2_frame
10
60527
20
443524
30
0
40
0.000001
41
0.000001
0
VERTEX
8
fr_2_frame
10
60638
20
446915
30
0
40
0.000001
41
0.000001
0
SEQEND
0
POLYLINE
8
fr_2_frame
40
0.000001
70
1
41
0.000001
66
1
0
VERTEX
8
fr_2_frame
10
60708
20
448317
30
0
40
0.000001
41
0.000001
0
VERTEX
8
fr_2_frame
10
65894
20
448056
30
0
40
0.000001
41
0.000001
0
VERTEX
8
fr_2_frame
10
65723
20
444667
30
0
40
0.000001
41
0.000001
0
VERTEX
8
fr_2_frame
10
60537
20
444928
30
0
40
0.000001
41
0.000001
0
VERTEX
8
fr_2_frame
10
60708
20
448317
30
0
40
0.000001
41
0.000001
0
SEQEND
0
POLYLINE
8
fr_2_frame
40
0.000001
70
1
41
0.000001
66
1
0
VERTEX
8
fr_2_frame
10
60784
20
449699
30
0
40
0.000001
41
0.000001
0
VERTEX
8
fr_2_frame
10
65966
20
449385
30
0
40
0.000001
41
0.000001
0
VERTEX
8
fr_2_frame
10
65761
20
445997
30
0
40
0.000001
41
0.000001
0
VERTEX
8
fr_2_frame
10
60579
20
446311
30
0
40
0.000001
41
0.000001
0
VERTEX
8
fr_2_frame
10
60784
20
449699
30
0
40
0.000001
41
0.000001
0
SEQEND
0
ENDSEC
0
EOF
